  0
SECTION
  2
HEADER
  9
$ACADVER
  1
AC1015
  9
$ACADMAINTVER
 70
    10
  9
$DWGCODEPAGE
  3
ANSI_932
  9
$INSBASE
 10
0.0
 20
0.0
 30
0.0
  9
$EXTMIN
 10
119.4
 20
49.90000000000009
 30
0.0
  9
$EXTMAX
 10
4156.400013327976
 20
2860.333333333335
 30
0.0
  9
$LIMMIN
 10
0.0
 20
0.0
  9
$LIMMAX
 10
4200.0
 20
2970.0
  9
$ORTHOMODE
 70
     0
  9
$REGENMODE
 70
     1
  9
$FILLMODE
 70
     1
  9
$QTEXTMODE
 70
     0
  9
$MIRRTEXT
 70
     0
  9
$LTSCALE
 40
10.0
  9
$ATTMODE
 70
     1
  9
$TEXTSIZE
 40
25.0
  9
$TRACEWID
 40
0.05
  9
$TEXTSTYLE
  7
M7
  9
$CLAYER
  8
1
  9
$CELTYPE
  6
CONTINUOUS
  9
$CECOLOR
 62
   256
  9
$CELTSCALE
 40
1.0
  9
$DISPSILH
 70
     0
  9
$DIMSCALE
 40
10.0
  9
$DIMASZ
 40
0.8
  9
$DIMEXO
 40
1.0
  9
$DIMDLI
 40
5.0
  9
$DIMRND
 40
0.0
  9
$DIMDLE
 40
0.0
  9
$DIMEXE
 40
1.5
  9
$DIMTP
 40
0.0
  9
$DIMTM
 40
0.0
  9
$DIMTXT
 40
2.5
  9
$DIMCEN
 40
1.0
  9
$DIMTSZ
 40
0.0
  9
$DIMTOL
 70
     0
  9
$DIMLIM
 70
     0
  9
$DIMTIH
 70
     0
  9
$DIMTOH
 70
     0
  9
$DIMSE1
 70
     0
  9
$DIMSE2
 70
     0
  9
$DIMTAD
 70
     1
  9
$DIMZIN
 70
     0
  9
$DIMBLK
  1

  9
$DIMASO
 70
     1
  9
$DIMSHO
 70
     0
  9
$DIMPOST
  1

  9
$DIMAPOST
  1

  9
$DIMALT
 70
     0
  9
$DIMALTD
 70
     2
  9
$DIMALTF
 40
25.4
  9
$DIMLFAC
 40
1.0
  9
$DIMTOFL
 70
     1
  9
$DIMTVP
 40
0.0
  9
$DIMTIX
 70
     0
  9
$DIMSOXD
 70
     0
  9
$DIMSAH
 70
     0
  9
$DIMBLK1
  1

  9
$DIMBLK2
  1

  9
$DIMSTYLE
  2
STANDARD
  9
$DIMCLRD
 70
     1
  9
$DIMCLRE
 70
     1
  9
$DIMCLRT
 70
     1
  9
$DIMTFAC
 40
0.8571428571428571
  9
$DIMGAP
 40
1.0
  9
$DIMJUST
 70
     0
  9
$DIMSD1
 70
     0
  9
$DIMSD2
 70
     0
  9
$DIMTOLJ
 70
     1
  9
$DIMTZIN
 70
     0
  9
$DIMALTZ
 70
     0
  9
$DIMALTTZ
 70
     0
  9
$DIMUPT
 70
     0
  9
$DIMDEC
 70
     0
  9
$DIMTDEC
 70
     0
  9
$DIMALTU
 70
     2
  9
$DIMALTTD
 70
     2
  9
$DIMTXSTY
  7
STANDARD
  9
$DIMAUNIT
 70
     0
  9
$DIMADEC
 70
     0
  9
$DIMALTRND
 40
0.0
  9
$DIMAZIN
 70
     0
  9
$DIMDSEP
 70
    46
  9
$DIMATFIT
 70
     3
  9
$DIMFRAC
 70
     0
  9
$DIMLDRBLK
  1

  9
$DIMLUNIT
 70
     2
  9
$DIMLWD
 70
    -2
  9
$DIMLWE
 70
    -2
  9
$DIMTMOVE
 70
     0
  9
$LUNITS
 70
     2
  9
$LUPREC
 70
     2
  9
$SKETCHINC
 40
0.1
  9
$FILLETRAD
 40
0.0
  9
$AUNITS
 70
     0
  9
$AUPREC
 70
     0
  9
$MENU
  1
A:\R13\WIN\ACAD
  9
$ELEVATION
 40
0.0
  9
$PELEVATION
 40
0.0
  9
$THICKNESS
 40
0.0
  9
$LIMCHECK
 70
     0
  9
$CHAMFERA
 40
0.0
  9
$CHAMFERB
 40
0.0
  9
$CHAMFERC
 40
0.0
  9
$CHAMFERD
 40
0.0
  9
$SKPOLY
 70
     0
  9
$TDCREATE
 40
2452079.839320139
  9
$TDUCREATE
 40
2452079.464320139
  9
$TDUPDATE
 40
2455362.653744745
  9
$TDUUPDATE
 40
2455362.278744745
  9
$TDINDWG
 40
0.9214257986
  9
$TDUSRTIMER
 40
0.9214257986
  9
$USRTIMER
 70
     1
  9
$ANGBASE
 50
0.0
  9
$ANGDIR
 70
     0
  9
$PDMODE
 70
    34
  9
$PDSIZE
 40
10.0
  9
$PLINEWID
 40
0.0
  9
$SPLFRAME
 70
     0
  9
$SPLINETYPE
 70
     6
  9
$SPLINESEGS
 70
     8
  9
$HANDSEED
  5
3828
  9
$SURFTAB1
 70
     6
  9
$SURFTAB2
 70
     6
  9
$SURFTYPE
 70
     6
  9
$SURFU
 70
     6
  9
$SURFV
 70
     6
  9
$UCSBASE
  2

  9
$UCSNAME
  2

  9
$UCSORG
 10
0.0
 20
0.0
 30
0.0
  9
$UCSXDIR
 10
1.0
 20
0.0
 30
0.0
  9
$UCSYDIR
 10
0.0
 20
1.0
 30
0.0
  9
$UCSORTHOREF
  2

  9
$UCSORTHOVIEW
 70
     0
  9
$UCSORGTOP
 10
0.0
 20
0.0
 30
0.0
  9
$UCSORGBOTTOM
 10
0.0
 20
0.0
 30
0.0
  9
$UCSORGLEFT
 10
0.0
 20
0.0
 30
0.0
  9
$UCSORGRIGHT
 10
0.0
 20
0.0
 30
0.0
  9
$UCSORGFRONT
 10
0.0
 20
0.0
 30
0.0
  9
$UCSORGBACK
 10
0.0
 20
0.0
 30
0.0
  9
$PUCSBASE
  2

  9
$PUCSNAME
  2

  9
$PUCSORG
 10
0.0
 20
0.0
 30
0.0
  9
$PUCSXDIR
 10
1.0
 20
0.0
 30
0.0
  9
$PUCSYDIR
 10
0.0
 20
1.0
 30
0.0
  9
$PUCSORTHOREF
  2

  9
$PUCSORTHOVIEW
 70
     0
  9
$PUCSORGTOP
 10
0.0
 20
0.0
 30
0.0
  9
$PUCSORGBOTTOM
 10
0.0
 20
0.0
 30
0.0
  9
$PUCSORGLEFT
 10
0.0
 20
0.0
 30
0.0
  9
$PUCSORGRIGHT
 10
0.0
 20
0.0
 30
0.0
  9
$PUCSORGFRONT
 10
0.0
 20
0.0
 30
0.0
  9
$PUCSORGBACK
 10
0.0
 20
0.0
 30
0.0
  9
$USERI1
 70
     0
  9
$USERI2
 70
     0
  9
$USERI3
 70
     0
  9
$USERI4
 70
     0
  9
$USERI5
 70
     0
  9
$USERR1
 40
0.0
  9
$USERR2
 40
0.0
  9
$USERR3
 40
0.0
  9
$USERR4
 40
0.0
  9
$USERR5
 40
0.0
  9
$WORLDVIEW
 70
     1
  9
$SHADEDGE
 70
     3
  9
$SHADEDIF
 70
    70
  9
$TILEMODE
 70
     1
  9
$MAXACTVP
 70
    16
  9
$PINSBASE
 10
0.0
 20
0.0
 30
0.0
  9
$PLIMCHECK
 70
     0
  9
$PEXTMIN
 10
1.000000000000000E+20
 20
1.000000000000000E+20
 30
1.000000000000000E+20
  9
$PEXTMAX
 10
-1.000000000000000E+20
 20
-1.000000000000000E+20
 30
-1.000000000000000E+20
  9
$PLIMMIN
 10
0.0
 20
0.0
  9
$PLIMMAX
 10
12.0
 20
9.0
  9
$UNITMODE
 70
     0
  9
$VISRETAIN
 70
     0
  9
$PLINEGEN
 70
     0
  9
$PSLTSCALE
 70
     0
  9
$TREEDEPTH
 70
  3020
  9
$CMLSTYLE
  2
STANDARD
  9
$CMLJUST
 70
     0
  9
$CMLSCALE
 40
1.0
  9
$PROXYGRAPHICS
 70
     1
  9
$MEASUREMENT
 70
     0
  9
$CELWEIGHT
370
    -1
  9
$ENDCAPS
280
     0
  9
$JOINSTYLE
280
     0
  9
$LWDISPLAY
290
     0
  9
$INSUNITS
 70
     0
  9
$HYPERLINKBASE
  1

  9
$STYLESHEET
  1
monochrome.ctb
  9
$XEDIT
290
     1
  9
$CEPSNTYPE
380
     0
  9
$PSTYLEMODE
290
     1
  9
$FINGERPRINTGUID
  2
{B5A1FB12-6520-4B5D-8E92-FC03700365CF}
  9
$VERSIONGUID
  2
{D9C18F10-11CF-444B-956F-EF609360EB31}
  9
$EXTNAMES
290
     1
  9
$PSVPSCALE
 40
0.0
  9
$OLESTARTUP
290
     0
  0
ENDSEC
  0
SECTION
  2
CLASSES
  0
CLASS
  1
IDBUFFER
  2
AcDbIdBuffer
  3
AutoCAD 2000
 90
    32768
280
     0
281
     0
  0
CLASS
  1
LWPOLYLINE
  2
AcDbPolyline
  3
AutoCAD 2000
 90
    32768
280
     0
281
     1
  0
CLASS
  1
HATCH
  2
AcDbHatch
  3
AutoCAD 2000
 90
    32768
280
     0
281
     1
  0
CLASS
  1
ACDBDICTIONARYWDFLT
  2
AcDbDictionaryWithDefault
  3
AutoCAD 2000
 90
        0
280
     0
281
     0
  0
CLASS
  1
ACDBPLACEHOLDER
  2
AcDbPlaceHolder
  3
AutoCAD 2000
 90
        0
280
     0
281
     0
  0
CLASS
  1
LAYOUT
  2
AcDbLayout
  3
AutoCAD 2000
 90
        0
280
     0
281
     0
  0
CLASS
  1
DICTIONARYVAR
  2
AcDbDictionaryVar
  3
AutoCAD 2000
 90
        0
280
     0
281
     0
  0
ENDSEC
  0
SECTION
  2
TABLES
  0
TABLE
  2
VPORT
  5
8
330
0
100
AcDbSymbolTable
 70
     3
  0
VPORT
  5
3827
330
8
100
AcDbSymbolTableRecord
100
AcDbViewportTableRecord
  2
*Active
 70
     0
 10
0.0
 20
0.0
 11
1.0
 21
1.0
 12
2382.278539931405
 22
1485.0
 13
0.0
 23
0.0
 14
12.5
 24
12.5
 15
50.0
 25
50.0
 16
0.0
 26
0.0
 36
1.0
 17
0.0
 27
0.0
 37
0.0
 40
2995.311171848592
 41
1.724358974358974
 42
50.0
 43
0.0
 44
0.0
 50
0.0
 51
0.0
 71
     0
 72
   500
 73
     1
 74
     0
 75
     1
 76
     1
 77
     0
 78
     0
281
     0
 65
     1
110
0.0
120
0.0
130
0.0
111
1.0
121
0.0
131
0.0
112
0.0
122
1.0
132
0.0
 79
     0
146
0.0
  0
ENDTAB
  0
TABLE
  2
LTYPE
  5
5
330
0
100
AcDbSymbolTable
 70
     9
  0
LTYPE
  5
12
330
5
100
AcDbSymbolTableRecord
100
AcDbLinetypeTableRecord
  2
BYBLOCK
 70
     0
  3

 72
    65
 73
     0
 40
0.0
  0
LTYPE
  5
13
330
5
100
AcDbSymbolTableRecord
100
AcDbLinetypeTableRecord
  2
BYLAYER
 70
     0
  3

 72
    65
 73
     0
 40
0.0
  0
LTYPE
  5
14
330
5
100
AcDbSymbolTableRecord
100
AcDbLinetypeTableRecord
  2
CONTINUOUS
 70
     0
  3
Solid line
 72
    65
 73
     0
 40
0.0
  0
LTYPE
  5
2A
330
5
100
AcDbSymbolTableRecord
100
AcDbLinetypeTableRecord
  2
DASHED
 70
     0
  3
___  ___  ___  ___  ___  ___  ___  ___
 72
    65
 73
     2
 40
5.0
 49
3.0
 74
     0
 49
-2.0
 74
     0
  0
LTYPE
  5
2B
330
5
100
AcDbSymbolTableRecord
100
AcDbLinetypeTableRecord
  2
HIDDEN
 70
     0
  3
__  __  __  __  __  __  __  __  __  __
 72
    65
 73
     2
 40
2.0
 49
1.0
 74
     0
 49
-1.0
 74
     0
  0
LTYPE
  5
2C
330
5
100
AcDbSymbolTableRecord
100
AcDbLinetypeTableRecord
  2
CENTER
 70
     0
  3
_____ _ _____ _ _____ _ _____ _ _____ _ _____
 72
    65
 73
     4
 40
17.0
 49
14.0
 74
     0
 49
-1.0
 74
     0
 49
1.0
 74
     0
 49
-1.0
 74
     0
  0
LTYPE
  5
2D
330
5
100
AcDbSymbolTableRecord
100
AcDbLinetypeTableRecord
  2
PHANTOM
 70
     0
  3
_____ _ _ _____ _ _ _____ _ _ _____ _ _ _____
 72
    65
 73
     6
 40
19.0
 49
14.0
 74
     0
 49
-1.0
 74
     0
 49
1.0
 74
     0
 49
-1.0
 74
     0
 49
1.0
 74
     0
 49
-1.0
 74
     0
  0
LTYPE
  5
2E
330
5
100
AcDbSymbolTableRecord
100
AcDbLinetypeTableRecord
  2
DOT
 70
     0
  3
_ _ _ _ _ _ _ _ _ _ _ _ _ _ _ _ _ _ _ _ _ _ 
 72
    65
 73
     2
 40
1.0
 49
0.5
 74
     0
 49
-0.5
 74
     0
  0
LTYPE
  5
2F
330
5
100
AcDbSymbolTableRecord
100
AcDbLinetypeTableRecord
  2
DASHDOT
 70
     0
  3
__ . __ . __ . __ . __ . __ . __ . __ . __ . __
 72
    65
 73
     4
 40
8.0
 49
5.0
 74
     0
 49
-1.0
 74
     0
 49
1.0
 74
     0
 49
-1.0
 74
     0
  0
LTYPE
  5
30
330
5
100
AcDbSymbolTableRecord
100
AcDbLinetypeTableRecord
  2
DIVIDE
 70
     0
  3
__ . . __ . . __ . . __ . . __ . . __ . . __
 72
    65
 73
     6
 40
10.0
 49
5.0
 74
     0
 49
-1.0
 74
     0
 49
1.0
 74
     0
 49
-1.0
 74
     0
 49
1.0
 74
     0
 49
-1.0
 74
     0
  0
LTYPE
  5
31
330
5
100
AcDbSymbolTableRecord
100
AcDbLinetypeTableRecord
  2
BORDER
 70
     0
  3
__ __ . __ __ . __ __ . __ __ . __ __ . __ __
 72
    65
 73
     6
 40
22.5
 49
5.0
 74
     0
 49
-2.5
 74
     0
 49
5.0
 74
     0
 49
-2.5
 74
     0
 49
5.0
 74
     0
 49
-2.5
 74
     0
  0
ENDTAB
  0
TABLE
  2
LAYER
  5
2
330
0
100
AcDbSymbolTable
 70
    21
  0
LAYER
  5
F
330
2
100
AcDbSymbolTableRecord
100
AcDbLayerTableRecord
  2
0
 70
     0
 62
     7
  6
CONTINUOUS
370
    -3
390
2547
  0
LAYER
  5
34
330
2
100
AcDbSymbolTableRecord
100
AcDbLayerTableRecord
  2
1
 70
     0
 62
     7
  6
CONTINUOUS
370
    -3
390
2547
  0
LAYER
  5
35
330
2
100
AcDbSymbolTableRecord
100
AcDbLayerTableRecord
  2
TEN
 70
     0
 62
    -8
  6
DASHED
370
    -3
390
2547
  0
LAYER
  5
36
330
2
100
AcDbSymbolTableRecord
100
AcDbLayerTableRecord
  2
HOJO
 70
     0
 62
     5
  6
CONTINUOUS
370
    -3
390
2547
  0
LAYER
  5
37
330
2
100
AcDbSymbolTableRecord
100
AcDbLayerTableRecord
  2
SIN-JIS
 70
     0
 62
     2
  6
CONTINUOUS
370
    -3
390
2547
  0
LAYER
  5
38
330
2
100
AcDbSymbolTableRecord
100
AcDbLayerTableRecord
  2
KYU-JIS
 70
     0
 62
    -3
  6
CONTINUOUS
370
    -3
390
2547
  0
LAYER
  5
39
330
2
100
AcDbSymbolTableRecord
100
AcDbLayerTableRecord
  2
JIS
 70
     0
 62
     6
  6
CONTINUOUS
370
    -3
390
2547
  0
LAYER
  5
3A
330
2
100
AcDbSymbolTableRecord
100
AcDbLayerTableRecord
  2
ZOKUSEI
 70
     0
 62
     4
  6
CONTINUOUS
370
    -3
390
2547
  0
LAYER
  5
3B
330
2
100
AcDbSymbolTableRecord
100
AcDbLayerTableRecord
  2
KUROMARU
 70
     0
 62
     1
  6
CONTINUOUS
370
    -3
390
2547
  0
LAYER
  5
3C
330
2
100
AcDbSymbolTableRecord
100
AcDbLayerTableRecord
  2
SENBAN
 70
     0
 62
     6
  6
CONTINUOUS
370
    -3
390
2547
  0
LAYER
  5
3D
330
2
100
AcDbSymbolTableRecord
100
AcDbLayerTableRecord
  2
GAIKEI1
 70
     0
 62
     2
  6
CONTINUOUS
370
    -3
390
2547
  0
LAYER
  5
3E
330
2
100
AcDbSymbolTableRecord
100
AcDbLayerTableRecord
  2
GAIKEI2
 70
     0
 62
     3
  6
CONTINUOUS
370
    -3
390
2547
  0
LAYER
  5
3F
330
2
100
AcDbSymbolTableRecord
100
AcDbLayerTableRecord
  2
GAIKEI3
 70
     0
 62
     4
  6
CONTINUOUS
370
    -3
390
2547
  0
LAYER
  5
40
330
2
100
AcDbSymbolTableRecord
100
AcDbLayerTableRecord
  2
WAKU
 70
     0
 62
     3
  6
CONTINUOUS
370
    -3
390
2547
  0
LAYER
  5
41
330
2
100
AcDbSymbolTableRecord
100
AcDbLayerTableRecord
  2
MEMORI
 70
     0
 62
     7
  6
CONTINUOUS
370
    -3
390
2547
  0
LAYER
  5
55C
330
2
100
AcDbSymbolTableRecord
100
AcDbLayerTableRecord
  2
DEFPOINTS
 70
     0
 62
     7
  6
CONTINUOUS
290
     0
370
    -3
390
2547
  0
LAYER
  5
203B
330
2
100
AcDbSymbolTableRecord
100
AcDbLayerTableRecord
  2
C-CIRCUIT
 70
     0
 62
     7
  6
CONTINUOUS
370
    -3
390
2547
  0
LAYER
  5
20AA
330
2
100
AcDbSymbolTableRecord
100
AcDbLayerTableRecord
  2
LAY-1
 70
     0
 62
     7
  6
CONTINUOUS
370
    -3
390
2547
  0
LAYER
  5
216E
330
2
100
AcDbSymbolTableRecord
100
AcDbLayerTableRecord
  2
WAKU-MOJI
 70
     0
 62
     7
  6
CONTINUOUS
370
    -3
390
2547
  0
LAYER
  5
2560
330
2
100
AcDbSymbolTableRecord
100
AcDbLayerTableRecord
  2
CONTROL-CIRCUIT
 70
     0
 62
     7
  6
CONTINUOUS
370
    -3
390
2547
  0
LAYER
  5
2561
330
2
100
AcDbSymbolTableRecord
100
AcDbLayerTableRecord
  2
MAIN-CIRCUIT
 70
     0
 62
     7
  6
CONTINUOUS
370
    -3
390
2547
  0
ENDTAB
  0
TABLE
  2
STYLE
  5
3
330
0
100
AcDbSymbolTable
 70
    18
  0
STYLE
  5
10
330
3
100
AcDbSymbolTableRecord
100
AcDbTextStyleTableRecord
  2
STANDARD
 70
     0
 40
0.0
 41
0.8
 50
0.0
 71
     0
 42
30.0
  3
monotxt
  4
EXTFONT.SHX
  0
STYLE
  5
1C
330
3
100
AcDbSymbolTableRecord
100
AcDbTextStyleTableRecord
  2
M4
 70
     0
 40
0.0
 41
0.4
 50
0.0
 71
     0
 42
30.0
  3
monotxt
  4
EXTFONT.SHX
  0
STYLE
  5
1D
330
3
100
AcDbSymbolTableRecord
100
AcDbTextStyleTableRecord
  2
M5
 70
     0
 40
0.0
 41
0.5
 50
0.0
 71
     0
 42
40.0
  3
monotxt
  4
EXTFONT.SHX
  0
STYLE
  5
1E
330
3
100
AcDbSymbolTableRecord
100
AcDbTextStyleTableRecord
  2
M6
 70
     0
 40
0.0
 41
0.6
 50
0.0
 71
     0
 42
30.0
  3
monotxt
  4
EXTFONT.SHX
  0
STYLE
  5
1F
330
3
100
AcDbSymbolTableRecord
100
AcDbTextStyleTableRecord
  2
M7
 70
     0
 40
0.0
 41
0.7
 50
0.0
 71
     0
 42
25.0
  3
MONOTXT
  4
EXTFONT.SHX
  0
STYLE
  5
20
330
3
100
AcDbSymbolTableRecord
100
AcDbTextStyleTableRecord
  2
M8
 70
     0
 40
0.0
 41
0.8
 50
0.0
 71
     0
 42
30.0
  3
ROMANS
  4
EXTFONT
  0
STYLE
  5
21
330
3
100
AcDbSymbolTableRecord
100
AcDbTextStyleTableRecord
  2
M9
 70
     0
 40
0.0
 41
0.9
 50
0.0
 71
     0
 42
30.0
  3
monotxt
  4
EXTFONT.SHX
  0
STYLE
  5
22
330
3
100
AcDbSymbolTableRecord
100
AcDbTextStyleTableRecord
  2
M0
 70
     0
 40
0.0
 41
1.0
 50
0.0
 71
     0
 42
30.0
  3
monotxt
  4
EXTFONT.SHX
  0
STYLE
  5
23
330
3
100
AcDbSymbolTableRecord
100
AcDbTextStyleTableRecord
  2
TM5
 70
     4
 40
0.0
 41
0.5
 50
0.0
 71
     0
 42
30.0
  3
monotxt
  4
EXTFONT.SHX
  0
STYLE
  5
24
330
3
100
AcDbSymbolTableRecord
100
AcDbTextStyleTableRecord
  2
TM8
 70
     4
 40
0.0
 41
0.8
 50
0.0
 71
     0
 42
30.0
  3
monotxt
  4
EXTFONT.SHX
  0
STYLE
  5
25
330
3
100
AcDbSymbolTableRecord
100
AcDbTextStyleTableRecord
  2
TM0
 70
     4
 40
0.0
 41
1.0
 50
0.0
 71
     0
 42
30.0
  3
monotxt
  4
EXTFONT.SHX
  0
STYLE
  5
26
330
3
100
AcDbSymbolTableRecord
100
AcDbTextStyleTableRecord
  2
TM4
 70
     4
 40
0.0
 41
0.4
 50
0.0
 71
     0
 42
60.0
  3
MONOTXT
  4
EXTFONT.SHX
  0
STYLE
  5
27
330
3
100
AcDbSymbolTableRecord
100
AcDbTextStyleTableRecord
  2
TM6
 70
     4
 40
0.0
 41
0.6
 50
0.0
 71
     0
 42
60.0
  3
MONOTXT
  4
EXTFONT.SHX
  0
STYLE
  5
28
330
3
100
AcDbSymbolTableRecord
100
AcDbTextStyleTableRecord
  2
TM7
 70
     4
 40
0.0
 41
0.7
 50
0.0
 71
     0
 42
20.0
  3
MONOTXT
  4
EXTFONT.SHX
  0
STYLE
  5
29
330
3
100
AcDbSymbolTableRecord
100
AcDbTextStyleTableRecord
  2
TM9
 70
     4
 40
0.0
 41
0.8
 50
0.0
 71
     0
 42
60.0
  3
MONOTXT
  4
EXTFONT.SHX
  0
STYLE
  5
2582
330
3
100
AcDbSymbolTableRecord
100
AcDbTextStyleTableRecord
  2
EXCADSTD
 70
     0
 40
0.0
 41
1.0
 50
0.0
 71
     0
 42
0.2
  3
monotxt
  4
bigfont
  0
STYLE
  5
25A6
330
3
100
AcDbSymbolTableRecord
100
AcDbTextStyleTableRecord
  2
EXCADVERT
 70
     4
 40
0.0
 41
1.0
 50
0.0
 71
     0
 42
0.286885
  3
monotxt
  4
bigfont
  0
STYLE
  5
359E
330
3
100
AcDbSymbolTableRecord
100
AcDbTextStyleTableRecord
  2
ｽﾀｲﾙ1
 70
     0
 40
0.0
 41
0.7
 50
0.0
 71
     0
 42
25.0
  3
MS PGothic.ttf
  4

1001
ACAD
1000
MS PGothic
1071
    32818
  0
ENDTAB
  0
TABLE
  2
VIEW
  5
6
330
0
100
AcDbSymbolTable
 70
     0
  0
ENDTAB
  0
TABLE
  2
UCS
  5
7
330
0
100
AcDbSymbolTable
 70
     0
  0
ENDTAB
  0
TABLE
  2
APPID
  5
9
330
0
100
AcDbSymbolTable
 70
     2
  0
APPID
  5
11
330
9
100
AcDbSymbolTableRecord
100
AcDbRegAppTableRecord
  2
ACAD
 70
     0
  0
APPID
  5
1FCE
330
9
100
AcDbSymbolTableRecord
100
AcDbRegAppTableRecord
  2
UBOX
 70
     0
  0
ENDTAB
  0
TABLE
  2
DIMSTYLE
  5
A
330
0
100
AcDbSymbolTable
 70
     1
100
AcDbDimStyleTable
 71
     0
  0
DIMSTYLE
105
46
330
A
100
AcDbSymbolTableRecord
100
AcDbDimStyleTableRecord
  2
STANDARD
 70
     0
 40
10.0
 41
0.8
 42
1.0
 43
5.0
 44
1.5
 73
     0
 74
     0
 77
     1
140
3.5
141
1.0
146
0.8571428571428571
147
1.0
172
     1
176
     1
177
     1
178
     1
271
     0
272
     0
340
10
  0
ENDTAB
  0
TABLE
  2
BLOCK_RECORD
  5
1
330
0
100
AcDbSymbolTable
 70
    20
  0
BLOCK_RECORD
  5
18
330
1
100
AcDbSymbolTableRecord
100
AcDbBlockTableRecord
  2
*MODEL_SPACE
340
254A
  0
BLOCK_RECORD
  5
15
330
1
100
AcDbSymbolTableRecord
100
AcDbBlockTableRecord
  2
*PAPER_SPACE
340
254B
  0
BLOCK_RECORD
  5
2004
102
{ACAD_XDICTIONARY
360
201C
102
}
330
1
100
AcDbSymbolTableRecord
100
AcDbBlockTableRecord
  2
3408105
340
0
  0
BLOCK_RECORD
  5
2088
330
1
100
AcDbSymbolTableRecord
100
AcDbBlockTableRecord
  2
AO02
340
0
  0
BLOCK_RECORD
  5
2099
330
1
100
AcDbSymbolTableRecord
100
AcDbBlockTableRecord
  2
AM01
340
0
  0
BLOCK_RECORD
  5
209F
330
1
100
AcDbSymbolTableRecord
100
AcDbBlockTableRecord
  2
AQ02
340
0
  0
BLOCK_RECORD
  5
20D7
330
1
100
AcDbSymbolTableRecord
100
AcDbBlockTableRecord
  2
AP01
340
0
  0
BLOCK_RECORD
  5
20FA
330
1
100
AcDbSymbolTableRecord
100
AcDbBlockTableRecord
  2
AP02
340
0
  0
BLOCK_RECORD
  5
211F
330
1
100
AcDbSymbolTableRecord
100
AcDbBlockTableRecord
  2
AP04
340
0
  0
BLOCK_RECORD
  5
2143
330
1
100
AcDbSymbolTableRecord
100
AcDbBlockTableRecord
  2
AP06
340
0
  0
BLOCK_RECORD
  5
2162
330
1
100
AcDbSymbolTableRecord
100
AcDbBlockTableRecord
  2
AL01
340
0
102
{BLKREFS
331
3720
331
372A
102
}
  0
BLOCK_RECORD
  5
216F
330
1
100
AcDbSymbolTableRecord
100
AcDbBlockTableRecord
  2
AP09
340
0
  0
BLOCK_RECORD
  5
2214
330
1
100
AcDbSymbolTableRecord
100
AcDbBlockTableRecord
  2
AJ03
340
0
  0
BLOCK_RECORD
  5
22A6
330
1
100
AcDbSymbolTableRecord
100
AcDbBlockTableRecord
  2
P10
340
0
102
{BLKREFS
331
22AD
102
}
  0
BLOCK_RECORD
  5
22AC
330
1
100
AcDbSymbolTableRecord
100
AcDbBlockTableRecord
  2
AN07
340
0
102
{BLKREFS
331
37DC
102
}
  0
BLOCK_RECORD
  5
26BB
330
1
100
AcDbSymbolTableRecord
100
AcDbBlockTableRecord
  2
UPARO1
340
0
  0
BLOCK_RECORD
  5
26C0
330
1
100
AcDbSymbolTableRecord
100
AcDbBlockTableRecord
  2
TB-EU
340
0
  0
BLOCK_RECORD
  5
26C5
330
1
100
AcDbSymbolTableRecord
100
AcDbBlockTableRecord
  2
TB-ED
340
0
  0
BLOCK_RECORD
  5
26CA
330
1
100
AcDbSymbolTableRecord
100
AcDbBlockTableRecord
  2
AM03
340
0
  0
BLOCK_RECORD
  5
26CF
330
1
100
AcDbSymbolTableRecord
100
AcDbBlockTableRecord
  2
AL03
340
0
  0
BLOCK_RECORD
  5
26D4
330
1
100
AcDbSymbolTableRecord
100
AcDbBlockTableRecord
  2
AY03
340
0
  0
BLOCK_RECORD
  5
26E2
330
1
100
AcDbSymbolTableRecord
100
AcDbBlockTableRecord
  2
AY02
340
0
  0
ENDTAB
  0
ENDSEC
  0
SECTION
  2
BLOCKS
  0
BLOCK
  5
44
330
18
100
AcDbEntity
  8
0
100
AcDbBlockBegin
  2
*MODEL_SPACE
 70
     0
 10
0.0
 20
0.0
 30
0.0
  3
*MODEL_SPACE
  1

  0
ENDBLK
  5
45
330
18
100
AcDbEntity
  8
0
100
AcDbBlockEnd
  0
BLOCK
  5
42
330
15
100
AcDbEntity
 67
     1
  8
0
100
AcDbBlockBegin
  2
*PAPER_SPACE
 70
     0
 10
0.0
 20
0.0
 30
0.0
  3
*PAPER_SPACE
  1

  0
ENDBLK
  5
43
330
15
100
AcDbEntity
 67
     1
  8
0
100
AcDbBlockEnd
  0
BLOCK
  5
2005
330
2004
100
AcDbEntity
  8
0
100
AcDbBlockBegin
  2
3408105
 70
     0
 10
0.0
 20
0.0
 30
0.0
  3
3408105
  1
C:\Zumen\8160628島根小学校改築電気設備工事\1P-体育館・1L-体育館・1T-体育館\3408105.dwg
  0
POINT
  5
2564
330
2004
100
AcDbEntity
  8
TEN
  6
Continuous
 62
     4
100
AcDbPoint
 10
3782.0
 20
103.0
 30
0.0
  0
POINT
  5
2565
330
2004
100
AcDbEntity
  8
TEN
  6
Continuous
 62
     4
100
AcDbPoint
 10
3781.0
 20
215.0
 30
0.0
  0
POINT
  5
2566
330
2004
100
AcDbEntity
  8
TEN
  6
Continuous
 62
     4
100
AcDbPoint
 10
4018.0
 20
80.12500000000001
 30
0.0
  0
POINT
  5
2567
330
2004
100
AcDbEntity
  8
TEN
  6
Continuous
 62
     4
100
AcDbPoint
 10
3990.0
 20
124.375
 30
0.0
  0
POINT
  5
2568
330
2004
100
AcDbEntity
  8
TEN
  6
Continuous
 62
     4
100
AcDbPoint
 10
1652.2
 20
187.3999999999999
 30
0.0
  0
POINT
  5
2569
330
2004
100
AcDbEntity
  8
TEN
  6
Continuous
 62
     4
100
AcDbPoint
 10
1710.0
 20
187.1
 30
0.0
  0
POINT
  5
256A
330
2004
100
AcDbEntity
  8
TEN
  6
Continuous
 62
     4
100
AcDbPoint
 10
1767.8
 20
186.8
 30
0.0
  0
LWPOLYLINE
  5
256B
102
{ACAD_REACTORS
330
25D0
102
}
330
2004
100
AcDbEntity
  8
WAKU
  6
Continuous
 62
     7
100
AcDbPolyline
 90
       70
 70
     1
 43
0.0
 10
1869.39
 20
108.4624190070459
 10
1868.95046664168
 20
107.893481361466
 10
1868.195926382809
 20
107.118483114415
 10
1867.36244213045
 20
106.4822917315619
 10
1866.466236707499
 20
105.997289954516
 10
1865.524753733089
 20
105.672917791188
 10
1864.55631810239
 20
105.5154887767669
 10
1863.579779313389
 20
105.528067087948
 10
1862.61414458282
 20
105.71040790221
 10
1861.6782088923
 20
106.058962163013
 10
1860.79018916545
 20
106.566945658146
 10
1859.967369696139
 20
107.224471066698
 10
1859.2257657294
 20
108.018740404517
 10
1858.57981174287
 20
108.934294122408
 10
1858.04208049616
 20
109.9533120086809
 10
1857.6230383163
 20
111.055960039295
 10
1857.33084138268
 20
112.220776424578
 10
1857.17117697625
 20
113.425089338548
 10
1857.14715278305
 20
114.6454582002219
 10
1857.259236406689
 20
115.858129917856
 10
1857.50524626691
 20
117.039501215859
 10
1857.88039406164
 20
118.1665780457059
 10
1858.37737796575
 20
119.217423138934
 10
1858.98652475288
 20
120.171582991124
 10
1859.695978073699
 20
121.010485966092
 10
1860.49192922631
 20
121.717803771669
 10
1861.35888592692
 20
122.2797692713309
 10
1862.27997384949
 20
122.6854444458539
 10
1863.23726506533
 20
122.9269332894139
 10
1864.21212698983
 20
122.999535496362
 10
1865.18558504451
 20
122.9018379473209
 10
1866.13869197564
 20
122.635742213956
 10
1867.05289664094
 20
122.2064275470369
 10
1867.9104050865
 20
121.622250068216
 10
1868.694526885819
 20
120.894580127628
 10
1869.39
 20
120.0375809929539
 10
1869.39
 20
124.858811196359
 10
1868.15817603983
 20
125.567524273263
 10
1866.85759997358
 20
126.082591372041
 10
1865.51052501831
 20
126.3951995518289
 10
1864.14
 20
126.5
 10
1862.769474981689
 20
126.3951995518289
 10
1861.422400026419
 20
126.082591372041
 10
1860.121823960169
 20
125.567524273263
 10
1858.89
 20
124.858811196359
 10
1857.74800499541
 20
123.968578418568
 10
1856.71537879754
 20
122.912058069535
 10
1855.80978992694
 20
121.7073275053569
 10
1855.04673326026
 20
120.375
 10
1854.439264908629
 20
118.9378720464719
 10
1853.99777882397
 20
117.4205333025059
 10
1853.72982895558
 20
115.8489458546959
 10
1853.64
 20
114.25
 10
1853.72982895558
 20
112.6510541453049
 10
1853.99777882397
 20
111.0794666974939
 10
1854.439264908629
 20
109.5621279535279
 10
1855.04673326026
 20
108.125
 10
1855.80978992694
 20
106.7926724946429
 10
1856.71537879754
 20
105.587941930465
 10
1857.74800499541
 20
104.5314215814319
 10
1858.89
 20
103.6411888036409
 10
1860.121823960169
 20
102.9324757267369
 10
1861.422400026419
 20
102.4174086279589
 10
1862.769474981689
 20
102.104800448171
 10
1864.14
 20
102.0
 10
1865.51052501831
 20
102.104800448171
 10
1866.85759997358
 20
102.4174086279589
 10
1868.15817603983
 20
102.9324757267369
 10
1869.39
 20
103.6411888036409
 10
1869.39
 20
103.6411888036409
  0
LWPOLYLINE
  5
256C
102
{ACAD_REACTORS
330
25D1
102
}
330
2004
100
AcDbEntity
  8
WAKU
  6
Continuous
 62
     7
100
AcDbPolyline
 90
       46
 70
     0
 43
0.0
 10
1932.25
 20
114.25
 10
1932.19890736089
 20
115.4677646334009
 10
1932.04662390368
 20
116.661826863399
 10
1931.79611365262
 20
117.808945626913
 10
1931.45225250482
 20
118.886793562041
 10
1931.02173332638
 20
119.8743915847569
 10
1930.512935683379
 20
120.7525172229269
 10
1929.93576274322
 20
121.504078759857
 10
1929.30144852064
 20
122.114447905118
 10
1928.62233922047
 20
122.571744517583
 10
1927.911652932749
 20
122.8670678388569
 10
1927.18322235769
 20
122.9946697364169
 10
1926.45122556785
 20
122.9520665844719
 10
1925.7299100481
 20
122.740087604915
 10
1925.03331538457
 20
122.3628587274589
 10
1924.375
 20
121.8277222831139
 10
1923.767777254539
 20
121.145094094059
 10
1923.223466048219
 20
120.328260741516
 10
1922.752660779529
 20
119.393120957559
 10
1922.36452513749
 20
118.357876174377
 10
1922.066613740869
 20
117.2426762540999
 10
1921.864725096149
 20
116.0692272946549
 10
1921.762788736139
 20
114.8603691452609
 10
1921.762788736139
 20
113.6396308547389
 10
1921.864725096149
 20
112.430772705345
 10
1922.066613740869
 20
111.2573237458999
 10
1922.36452513749
 20
110.142123825624
 10
1922.752660779529
 20
109.106879042441
 10
1923.223466048219
 20
108.171739258484
 10
1923.767777254539
 20
107.3549059059409
 10
1924.375
 20
106.6722777168859
 10
1925.03331538457
 20
106.137141272541
 10
1925.7299100481
 20
105.7599123950849
 10
1926.45122556785
 20
105.547933415528
 10
1927.18322235769
 20
105.5053302635829
 10
1927.911652932749
 20
105.632932161143
 10
1928.62233922047
 20
105.9282554824169
 10
1929.30144852064
 20
106.385552094882
 10
1929.93576274322
 20
106.995921240143
 10
1930.512935683379
 20
107.747482777073
 10
1931.02173332638
 20
108.625608415243
 10
1931.45225250482
 20
109.6132064379599
 10
1931.79611365262
 20
110.691054373087
 10
1932.04662390368
 20
111.838173136601
 10
1932.19890736089
 20
113.032235366599
 10
1932.25
 20
114.25
  0
LWPOLYLINE
  5
256D
102
{ACAD_REACTORS
330
25D1
102
}
330
2004
100
AcDbEntity
  8
WAKU
  6
Continuous
 62
     7
100
AcDbPolyline
 90
       49
 70
     0
 43
0.0
 10
1927.0
 20
126.5
 10
1925.85789581807
 20
126.3951995518289
 10
1924.73533335535
 20
126.082591372041
 10
1923.65151996681
 20
125.567524273263
 10
1922.625
 20
124.858811196359
 10
1921.67333749617
 20
123.968578418568
 10
1920.81281566462
 20
122.912058069535
 10
1920.05815827245
 20
121.7073275053569
 10
1919.42227771689
 20
120.375
 10
1918.91605409053
 20
118.9378720464719
 10
1918.54814901997
 20
117.4205333025059
 10
1918.324857462979
 20
115.8489458546959
 10
1918.25
 20
114.25
 10
1918.324857462979
 20
112.6510541453039
 10
1918.54814901997
 20
111.0794666974939
 10
1918.91605409053
 20
109.5621279535279
 10
1919.42227771689
 20
108.125
 10
1920.05815827245
 20
106.7926724946429
 10
1920.81281566462
 20
105.587941930465
 10
1921.67333749617
 20
104.5314215814319
 10
1922.625
 20
103.6411888036409
 10
1923.65151996681
 20
102.9324757267369
 10
1924.73533335535
 20
102.4174086279589
 10
1925.85789581807
 20
102.104800448171
 10
1927.0
 20
102.0
 10
1928.142104181929
 20
102.104800448171
 10
1929.264666644649
 20
102.4174086279589
 10
1930.34848003319
 20
102.9324757267369
 10
1931.375
 20
103.6411888036409
 10
1932.326662503829
 20
104.5314215814319
 10
1933.18718433538
 20
105.587941930465
 10
1933.94184172755
 20
106.7926724946429
 10
1934.577722283109
 20
108.125
 10
1935.08394590947
 20
109.5621279535279
 10
1935.45185098003
 20
111.0794666974939
 10
1935.67514253702
 20
112.6510541453039
 10
1935.75
 20
114.25
 10
1935.67514253702
 20
115.8489458546959
 10
1935.45185098003
 20
117.4205333025059
 10
1935.08394590947
 20
118.9378720464719
 10
1934.577722283109
 20
120.375
 10
1933.94184172755
 20
121.7073275053569
 10
1933.18718433538
 20
122.912058069535
 10
1932.326662503829
 20
123.968578418568
 10
1931.375
 20
124.858811196359
 10
1930.34848003319
 20
125.567524273263
 10
1929.264666644649
 20
126.082591372041
 10
1928.142104181929
 20
126.3951995518289
 10
1927.0
 20
126.5
  0
LWPOLYLINE
  5
256E
102
{ACAD_REACTORS
330
25D1
102
}
330
2004
100
AcDbEntity
  8
WAKU
  6
Continuous
 62
     7
100
AcDbPolyline
 90
       11
 70
     0
 43
0.0
 10
1937.5
 20
102.0
 10
1941.0
 20
102.0
 10
1941.0
 20
119.5
 10
1951.5
 20
102.0
 10
1955.0
 20
102.0
 10
1955.0
 20
126.5
 10
1951.5
 20
126.5
 10
1951.5
 20
109.0
 10
1941.0
 20
126.5
 10
1937.5
 20
126.5
 10
1937.5
 20
102.0
  0
LWPOLYLINE
  5
256F
102
{ACAD_REACTORS
330
25D1
102
}
330
2004
100
AcDbEntity
  8
WAKU
  6
Continuous
 62
     7
100
AcDbPolyline
 90
        5
 70
     0
 43
0.0
 10
1913.0
 20
126.5
 10
1913.0
 20
102.0
 10
1916.5
 20
102.0
 10
1916.5
 20
126.5
 10
1913.0
 20
126.5
  0
LWPOLYLINE
  5
2570
102
{ACAD_REACTORS
330
25D1
102
}
330
2004
100
AcDbEntity
  8
WAKU
  6
Continuous
 62
     7
100
AcDbPolyline
 90
        7
 70
     0
 43
0.0
 10
1902.5
 20
126.5
 10
1902.5
 20
105.4999999999999
 10
1909.499999999999
 20
105.4999999999999
 10
1909.499999999999
 20
102.0
 10
1899.0
 20
102.0
 10
1899.0
 20
126.5
 10
1902.5
 20
126.5
  0
LWPOLYLINE
  5
2571
102
{ACAD_REACTORS
330
25D1
102
}
330
2004
100
AcDbEntity
  8
WAKU
  6
Continuous
 62
     7
100
AcDbPolyline
 90
       13
 70
     0
 43
0.0
 10
1888.5
 20
102.0
 10
1874.5
 20
102.0
 10
1874.5
 20
126.5
 10
1888.5
 20
126.5
 10
1888.5
 20
123.0
 10
1878.0
 20
123.0
 10
1878.0
 20
116.0
 10
1888.5
 20
116.0
 10
1888.5
 20
112.5
 10
1878.0
 20
112.5
 10
1878.0
 20
105.4999999999999
 10
1888.5
 20
105.4999999999999
 10
1888.5
 20
102.0
  0
POINT
  5
2572
330
2004
100
AcDbEntity
  8
TEN
  6
Continuous
 62
     4
100
AcDbPoint
 10
1652.2
 20
77.30000000000001
 30
0.0
  0
POINT
  5
2573
330
2004
100
AcDbEntity
  8
TEN
  6
Continuous
 62
     4
100
AcDbPoint
 10
1710.0
 20
77.0
 30
0.0
  0
POINT
  5
2574
330
2004
100
AcDbEntity
  8
TEN
  6
Continuous
 62
     4
100
AcDbPoint
 10
1767.8
 20
76.7
 30
0.0
  0
CIRCLE
  5
2575
330
2004
100
AcDbEntity
  8
WAKU
  6
Continuous
 62
     2
100
AcDbCircle
 10
1740.0
 20
69.5
 30
0.0
 40
3.0
  0
CIRCLE
  5
2576
330
2004
100
AcDbEntity
  8
WAKU
  6
Continuous
 62
     2
100
AcDbCircle
 10
1680.0
 20
69.5
 30
0.0
 40
3.0
  0
POINT
  5
2577
330
2004
100
AcDbEntity
  8
TEN
  6
Continuous
 62
     4
100
AcDbPoint
 10
3459.0
 20
104.0
 30
0.0
  0
POINT
  5
2578
330
2004
100
AcDbEntity
  8
TEN
  6
Continuous
 62
     4
100
AcDbPoint
 10
1510.0
 20
83.0
 30
0.0
  0
POINT
  5
2579
330
2004
100
AcDbEntity
  8
TEN
  6
Continuous
 62
     4
100
AcDbPoint
 10
1515.0
 20
194.0
 30
0.0
  0
POINT
  5
257A
330
2004
100
AcDbEntity
  8
TEN
  6
Continuous
 62
     4
100
AcDbPoint
 10
1738.0
 20
243.0
 30
0.0
  0
POINT
  5
257B
330
2004
100
AcDbEntity
  8
TEN
  6
Continuous
 62
     4
100
AcDbPoint
 10
1734.0
 20
131.0
 30
0.0
  0
POINT
  5
257C
330
2004
100
AcDbEntity
  8
TEN
  6
Continuous
 62
     4
100
AcDbPoint
 10
2839.0
 20
99.0
 30
0.0
  0
POINT
  5
257D
330
2004
100
AcDbEntity
  8
TEN
  6
Continuous
 62
     4
100
AcDbPoint
 10
3074.0
 20
211.0
 30
0.0
  0
POINT
  5
257E
330
2004
100
AcDbEntity
  8
TEN
  6
Continuous
 62
     4
100
AcDbPoint
 10
3220.0
 20
103.0
 30
0.0
  0
POINT
  5
257F
330
2004
100
AcDbEntity
  8
TEN
  6
Continuous
 62
     4
100
AcDbPoint
 10
3648.0
 20
103.0
 30
0.0
  0
POINT
  5
2580
330
2004
100
AcDbEntity
  8
TEN
  6
Continuous
 62
     4
100
AcDbPoint
 10
3647.0
 20
215.0
 30
0.0
  0
TEXT
  5
2581
330
2004
100
AcDbEntity
  8
WAKU
  6
Continuous
 62
     1
100
AcDbText
 10
3859.0
 20
2832.0
 30
0.0
 40
25.0
  1
８
 41
0.84
  7
EXCADSTD
100
AcDbText
  0
TEXT
  5
2583
330
2004
100
AcDbEntity
  8
WAKU
  6
Continuous
 62
     1
100
AcDbText
 10
3392.0
 20
2837.0
 30
0.0
 40
25.0
  1
７
 41
0.84
  7
EXCADSTD
100
AcDbText
  0
TEXT
  5
2584
330
2004
100
AcDbEntity
  8
WAKU
  6
Continuous
 62
     1
100
AcDbText
 10
2887.0
 20
2837.0
 30
0.0
 40
25.0
  1
６
 41
0.84
  7
EXCADSTD
100
AcDbText
  0
TEXT
  5
2585
330
2004
100
AcDbEntity
  8
WAKU
  6
Continuous
 62
     1
100
AcDbText
 10
2376.0
 20
2837.0
 30
0.0
 40
25.0
  1
５
 41
0.84
  7
EXCADSTD
100
AcDbText
  0
TEXT
  5
2586
330
2004
100
AcDbEntity
  8
WAKU
  6
Continuous
 62
     1
100
AcDbText
 10
1890.0
 20
2837.0
 30
0.0
 40
25.0
  1
４
 41
0.84
  7
EXCADSTD
100
AcDbText
  0
TEXT
  5
2587
330
2004
100
AcDbEntity
  8
WAKU
  6
Continuous
 62
     1
100
AcDbText
 10
1375.0
 20
2837.0
 30
0.0
 40
25.0
  1
３
 41
0.84
  7
EXCADSTD
100
AcDbText
  0
TEXT
  5
2588
330
2004
100
AcDbEntity
  8
WAKU
  6
Continuous
 62
     1
100
AcDbText
 10
879.0
 20
2837.0
 30
0.0
 40
25.0
  1
２
 41
0.84
  7
EXCADSTD
100
AcDbText
  0
TEXT
  5
2589
330
2004
100
AcDbEntity
  8
WAKU
  6
Continuous
 62
     1
100
AcDbText
 10
378.0
 20
2837.0
 30
0.0
 40
25.0
  1
１
 41
0.84
  7
EXCADSTD
100
AcDbText
  0
TEXT
  5
258A
330
2004
100
AcDbEntity
  8
WAKU
  6
Continuous
 62
     1
100
AcDbText
 10
123.0
 20
520.0
 30
0.0
 40
25.0
  1
Ｅ
 41
0.84
  7
EXCADSTD
100
AcDbText
  0
TEXT
  5
258B
330
2004
100
AcDbEntity
  8
WAKU
  6
Continuous
 62
     1
100
AcDbText
 10
118.0
 20
1025.0
 30
0.0
 40
25.0
  1
Ｄ
 41
0.84
  7
EXCADSTD
100
AcDbText
  0
TEXT
  5
258C
330
2004
100
AcDbEntity
  8
WAKU
  6
Continuous
 62
     1
100
AcDbText
 10
123.0
 20
1531.0
 30
0.0
 40
25.0
  1
Ｃ
 41
0.84
  7
EXCADSTD
100
AcDbText
  0
TEXT
  5
258D
330
2004
100
AcDbEntity
  8
WAKU
  6
Continuous
 62
     1
100
AcDbText
 10
118.0
 20
2027.0
 30
0.0
 40
25.0
  1
Ｂ
 41
0.84
  7
EXCADSTD
100
AcDbText
  0
TEXT
  5
258E
330
2004
100
AcDbEntity
  8
WAKU
  6
Continuous
 62
     1
100
AcDbText
 10
118.0
 20
2527.0
 30
0.0
 40
25.0
  1
Ａ
 41
0.84
  7
EXCADSTD
100
AcDbText
  0
TEXT
  5
258F
330
2004
100
AcDbEntity
  8
WAKU
  6
Continuous
 62
     2
100
AcDbText
 10
1055.0
 20
170.0
 30
0.0
 40
30.0
  1
日塗工・マンセル
 41
0.84
  7
EXCADSTD
100
AcDbText
  0
TEXT
  5
2590
330
2004
100
AcDbEntity
  8
WAKU
  6
Continuous
 62
     2
100
AcDbText
 10
1056.0
 20
117.0
 30
0.0
 40
30.0
  1
外面
 41
0.84
  7
EXCADSTD
100
AcDbText
  0
LINE
  5
2591
330
2004
100
AcDbEntity
  8
WAKU
  6
DOT
 62
     3
100
AcDbLine
 10
210.0
 20
110.0
 30
0.0
 11
1401.0
 21
110.0
 31
0.0
  0
LINE
  5
2592
330
2004
100
AcDbEntity
  8
WAKU
  6
DOT
 62
     3
100
AcDbLine
 10
210.0
 20
210.0
 30
0.0
 11
1050.0
 21
210.0
 31
0.0
  0
LINE
  5
2593
330
2004
100
AcDbEntity
  8
WAKU
  6
Continuous
 62
     1
100
AcDbLine
 10
150.0
 20
320.0
 30
0.0
 11
170.0
 21
320.0
 31
0.0
  0
LINE
  5
2594
330
2004
100
AcDbEntity
  8
WAKU
  6
Continuous
 62
     1
100
AcDbLine
 10
150.0
 20
820.0
 30
0.0
 11
170.0
 21
820.0
 31
0.0
  0
LINE
  5
2595
330
2004
100
AcDbEntity
  8
WAKU
  6
Continuous
 62
     1
100
AcDbLine
 10
150.0
 20
1320.0
 30
0.0
 11
170.0
 21
1320.0
 31
0.0
  0
LINE
  5
2596
330
2004
100
AcDbEntity
  8
WAKU
  6
Continuous
 62
     1
100
AcDbLine
 10
150.0
 20
1820.0
 30
0.0
 11
170.0
 21
1820.0
 31
0.0
  0
LINE
  5
2597
330
2004
100
AcDbEntity
  8
WAKU
  6
Continuous
 62
     1
100
AcDbLine
 10
150.0
 20
2320.0
 30
0.0
 11
170.0
 21
2320.0
 31
0.0
  0
LINE
  5
2598
330
2004
100
AcDbEntity
  8
WAKU
  6
Continuous
 62
     1
100
AcDbLine
 10
3650.0
 20
2820.0
 30
0.0
 11
3650.0
 21
2800.0
 31
0.0
  0
LINE
  5
2599
330
2004
100
AcDbEntity
  8
WAKU
  6
Continuous
 62
     1
100
AcDbLine
 10
3150.0
 20
2820.0
 30
0.0
 11
3150.0
 21
2800.0
 31
0.0
  0
LINE
  5
259A
330
2004
100
AcDbEntity
  8
WAKU
  6
Continuous
 62
     1
100
AcDbLine
 10
2650.0
 20
2820.0
 30
0.0
 11
2650.0
 21
2800.0
 31
0.0
  0
LINE
  5
259B
330
2004
100
AcDbEntity
  8
WAKU
  6
Continuous
 62
     1
100
AcDbLine
 10
2150.0
 20
2820.0
 30
0.0
 11
2150.0
 21
2800.0
 31
0.0
  0
LINE
  5
259C
330
2004
100
AcDbEntity
  8
WAKU
  6
Continuous
 62
     1
100
AcDbLine
 10
1650.0
 20
2820.0
 30
0.0
 11
1650.0
 21
2800.0
 31
0.0
  0
LINE
  5
259D
330
2004
100
AcDbEntity
  8
WAKU
  6
Continuous
 62
     1
100
AcDbLine
 10
1150.0
 20
2820.0
 30
0.0
 11
1150.0
 21
2800.0
 31
0.0
  0
LINE
  5
259E
330
2004
100
AcDbEntity
  8
WAKU
  6
Continuous
 62
     1
100
AcDbLine
 10
650.0
 20
2820.0
 30
0.0
 11
650.0
 21
2800.0
 31
0.0
  0
POINT
  5
259F
330
2004
100
AcDbEntity
  8
TEN
  6
Continuous
 62
     4
100
AcDbPoint
 10
1820.172203531769
 20
221.000000000001
 30
0.0
  0
TEXT
  5
25A0
330
2004
100
AcDbEntity
  8
WAKU
  6
Continuous
 62
     2
100
AcDbText
 10
3084.0
 20
89.0
 30
0.0
 40
30.0
  1
記号
 41
0.98
  7
EXCADSTD
100
AcDbText
  0
LINE
  5
25A1
330
2004
100
AcDbEntity
  8
WAKU
  6
Continuous
 62
     3
100
AcDbLine
 10
3074.999968
 20
51.0
 30
0.0
 11
3074.999968
 21
160.4999999999999
 31
0.0
  0
LINE
  5
25A2
330
2004
100
AcDbEntity
  8
WAKU
  6
Continuous
 62
     5
100
AcDbLine
 10
1918.89537202802
 20
179.7759999999999
 30
0.0
 11
1920.05588952606
 21
180.936517498042
 31
0.0
  0
CIRCLE
  5
25A3
330
2004
100
AcDbEntity
  8
WAKU
  6
Continuous
 62
     2
100
AcDbCircle
 10
1740.0
 20
179.4999999999999
 30
0.0
 40
3.0
  0
CIRCLE
  5
25A4
330
2004
100
AcDbEntity
  8
WAKU
  6
Continuous
 62
     2
100
AcDbCircle
 10
1680.0
 20
179.4999999999999
 30
0.0
 40
3.0
  0
TEXT
  5
25A5
330
2004
100
AcDbEntity
  8
WAKU
  6
Continuous
 62
     2
100
AcDbText
 10
177.991667
 20
249.0
 30
0.0
 40
31.5
  1
変更記事
 41
0.8
  7
EXCADVERT
100
AcDbText
  0
LINE
  5
25A7
330
2004
100
AcDbEntity
  8
WAKU
  6
Continuous
 62
     3
100
AcDbLine
 10
4032.0
 20
146.5
 30
0.0
 11
3976.0
 21
58.0
 31
0.0
  0
LINE
  5
25A8
330
2004
100
AcDbEntity
  8
WAKU
  6
Continuous
 62
     3
100
AcDbLine
 10
2549.999968
 20
160.4999999999999
 30
0.0
 11
4050.0
 21
160.4999999999999
 31
0.0
  0
LINE
  5
25A9
330
2004
100
AcDbEntity
  8
WAKU
  6
DOT
 62
     3
100
AcDbLine
 10
1671.0
 20
213.75
 30
0.0
 11
1799.999975
 21
213.75
 31
0.0
  0
LINE
  5
25AA
330
2004
100
AcDbEntity
  8
WAKU
  6
DOT
 62
     3
100
AcDbLine
 10
1671.0
 20
103.75
 30
0.0
 11
1799.999975
 21
103.75
 31
0.0
  0
LINE
  5
25AB
330
2004
100
AcDbEntity
  8
WAKU
  6
Continuous
 62
     3
100
AcDbLine
 10
1401.0
 20
160.0
 30
0.0
 11
1799.999975
 21
160.0
 31
0.0
  0
LINE
  5
25AC
330
2004
100
AcDbEntity
  8
WAKU
  6
DOT
 62
     3
100
AcDbLine
 10
210.0
 20
50.0
 30
0.0
 11
210.0
 21
270.0
 31
0.0
  0
LINE
  5
25AD
330
2004
100
AcDbEntity
  8
WAKU
  6
DOT
 62
     3
100
AcDbLine
 10
210.0
 20
160.0
 30
0.0
 11
1401.0
 21
160.0
 31
0.0
  0
LINE
  5
25AE
330
2004
100
AcDbEntity
  8
WAKU
  6
Continuous
 62
    11
100
AcDbLine
 10
150.0
 20
270.0
 30
0.0
 11
4050.0
 21
270.0
 31
0.0
  0
LINE
  5
25AF
330
2004
100
AcDbEntity
  8
WAKU
  6
Continuous
 62
     3
100
AcDbLine
 10
1050.0
 20
270.0
 30
0.0
 11
1050.0
 21
50.0
 31
0.0
  0
LINE
  5
25B0
330
2004
100
AcDbEntity
  8
WAKU
  6
Continuous
 62
     3
100
AcDbLine
 10
1400.0
 20
270.0
 30
0.0
 11
1400.0
 21
50.0
 31
0.0
  0
LINE
  5
25B1
330
2004
100
AcDbEntity
  8
WAKU
  6
Continuous
 62
     3
100
AcDbLine
 10
1600.0
 20
270.0
 30
0.0
 11
1600.0
 21
50.0
 31
0.0
  0
LINE
  5
25B2
330
2004
100
AcDbEntity
  8
WAKU
  6
Continuous
 62
     3
100
AcDbLine
 10
1799.999975
 20
270.0
 30
0.0
 11
1799.999975
 21
49.90000000000009
 31
0.0
  0
LINE
  5
25B3
330
2004
100
AcDbEntity
  8
WAKU
  6
Continuous
 62
     3
100
AcDbLine
 10
2549.999968
 20
270.0
 30
0.0
 11
2549.999968
 21
50.0
 31
0.0
  0
TEXT
  5
25B4
330
2004
100
AcDbEntity
  8
WAKU
  6
Continuous
 62
     2
100
AcDbText
 10
3310.0
 20
91.0
 30
0.0
 40
30.0
  1
製作数
 41
0.933333333333333
  7
EXCADSTD
100
AcDbText
  0
LINE
  5
25B5
330
2004
100
AcDbEntity
  8
WAKU
  6
Continuous
 62
     3
100
AcDbLine
 10
3550.0
 20
160.4999999999999
 30
0.0
 11
3550.0
 21
50.0
 31
0.0
  0
LINE
  5
25B6
330
2004
100
AcDbEntity
  8
WAKU
  6
Continuous
 62
     3
100
AcDbLine
 10
3300.0
 20
160.4999999999999
 30
0.0
 11
3300.0
 21
51.0
 31
0.0
  0
LINE
  5
25B7
330
2004
100
AcDbEntity
  8
WAKU
  6
Continuous
 62
     3
100
AcDbLine
 10
3550.0
 20
270.0
 30
0.0
 11
3550.0
 21
160.4999999999999
 31
0.0
  0
TEXT
  5
25B8
330
2004
100
AcDbEntity
  8
WAKU
  6
Continuous
 62
    11
100
AcDbText
 10
2002.0
 20
123.0
 30
0.0
 40
50.0
  1
エ－スライオン株式会社
 41
0.7636363636363641
  7
EXCADSTD
100
AcDbText
  0
TEXT
  5
25B9
330
2004
100
AcDbEntity
  8
WAKU
  6
Continuous
 62
     2
100
AcDbText
 10
3559.0
 20
90.0
 30
0.0
 40
30.0
  1
図番
 41
0.98
  7
EXCADSTD
100
AcDbText
  0
TEXT
  5
25BA
330
2004
100
AcDbEntity
  8
WAKU
  6
Continuous
 62
     2
100
AcDbText
 10
3504.0
 20
89.0
 30
0.0
 40
30.0
  1
面
 41
1.12
  7
EXCADSTD
100
AcDbText
  0
TEXT
  5
25BB
330
2004
100
AcDbEntity
  8
WAKU
  6
Continuous
 62
     2
100
AcDbText
 10
3553.000031999999
 20
197.0000000000009
 30
0.0
 40
30.0
  1
工番
 41
0.98
  7
EXCADSTD
100
AcDbText
  0
TEXT
  5
25BC
330
2004
100
AcDbEntity
  8
WAKU
  6
Continuous
 62
     2
100
AcDbText
 10
2563.0
 20
91.0
 30
0.0
 40
30.0
  1
品名
 41
0.98
  7
EXCADSTD
100
AcDbText
  0
TEXT
  5
25BD
330
2004
100
AcDbEntity
  8
WAKU
  6
Continuous
 62
     2
100
AcDbText
 10
3500.000031999999
 20
197.0000000000009
 30
0.0
 40
30.0
  1
殿
 41
1.12
  7
EXCADSTD
100
AcDbText
  0
TEXT
  5
25BE
330
2004
100
AcDbEntity
  8
WAKU
  6
Continuous
 62
     2
100
AcDbText
 10
2560.0
 20
200.0
 30
0.0
 40
30.0
  1
納入先
 41
0.933333333333333
  7
EXCADSTD
100
AcDbText
  0
TEXT
  5
25BF
330
2004
100
AcDbEntity
  8
WAKU
  6
Continuous
 62
     2
100
AcDbText
 10
1607.0
 20
117.5
 30
0.0
 40
30.0
  1
検図
 41
0.84
  7
EXCADSTD
100
AcDbText
  0
TEXT
  5
25C0
330
2004
100
AcDbEntity
  8
WAKU
  6
Continuous
 62
     2
100
AcDbText
 10
1607.0
 20
231.0
 30
0.0
 40
30.0
  1
製図
 41
0.84
  7
EXCADSTD
100
AcDbText
  0
TEXT
  5
25C1
330
2004
100
AcDbEntity
  8
WAKU
  6
Continuous
 62
     2
100
AcDbText
 10
1406.0
 20
117.5
 30
0.0
 40
30.0
  1
縮尺
 41
0.84
  7
EXCADSTD
100
AcDbText
  0
TEXT
  5
25C2
330
2004
100
AcDbEntity
  8
WAKU
  6
Continuous
 62
     2
100
AcDbText
 10
1408.0
 20
231.0
 30
0.0
 40
30.0
  1
形式
 41
0.84
  7
EXCADSTD
100
AcDbText
  0
TEXT
  5
25C3
330
2004
100
AcDbEntity
  8
WAKU
  6
Continuous
 62
     2
100
AcDbText
 10
1057.0
 20
61.0
 30
0.0
 40
30.0
  1
内面
 41
0.84
  7
EXCADSTD
100
AcDbText
  0
TEXT
  5
25C4
330
2004
100
AcDbEntity
  8
WAKU
  6
Continuous
 62
     2
100
AcDbText
 10
1055.0
 20
222.0
 30
0.0
 40
30.0
  1
塗装色（艶　　　　　　）
 41
0.84
  7
EXCADSTD
100
AcDbText
  0
LWPOLYLINE
  5
25C5
330
2004
100
AcDbEntity
  8
WAKU
  6
Continuous
 62
    11
100
AcDbPolyline
 90
        5
 70
     0
 43
0.0
 10
150.0
 20
50.0
 10
4050.0
 20
50.0
 10
4050.0
 20
2820.0
 10
150.0
 20
2820.0
 10
150.0
 20
50.0
  0
TEXT
  5
25C6
330
2004
100
AcDbEntity
  8
WAKU-MOJI
  6
Continuous
100
AcDbText
 10
1709.066666666666
 20
223.0
 30
0.0
 40
40.0
  1
樋田
 41
0.7
  7
M7
 72
     1
 11
1738.0
 21
243.0
 31
0.0
100
AcDbText
 73
     2
  0
LWPOLYLINE
  5
25C7
102
{ACAD_REACTORS
330
25C8
102
}
330
2004
100
AcDbEntity
  8
WAKU
  6
Continuous
 62
     1
100
AcDbPolyline
 90
        6
 70
     1
 43
0.0
 10
1876.16089539752
 20
150.592
 10
1904.538815828732
 20
150.592
 10
1896.114120700713
 20
136.0
 10
1849.999999999999
 20
136.0
 10
1873.057060350359
 20
175.9359999999999
 10
1890.793260619863
 20
175.9359999999999
  0
HATCH
  5
25C8
330
2004
100
AcDbEntity
  8
WAKU-MOJI
  6
Continuous
100
AcDbHatch
 10
0.0
 20
0.0
 30
0.0
210
0.0
220
0.0
230
1.0
  2
SOLID
 70
     1
 71
     1
 91
        1
 92
        1
 93
        6
 72
     1
 10
1876.16089539752
 20
150.592
 11
1904.538815828732
 21
150.592
 72
     1
 10
1904.538815828732
 20
150.592
 11
1896.114120700713
 21
136.0
 72
     1
 10
1896.114120700713
 20
136.0
 11
1849.999999999999
 21
136.0
 72
     1
 10
1849.999999999999
 20
136.0
 11
1873.057060350359
 21
175.9359999999999
 72
     1
 10
1873.057060350359
 20
175.9359999999999
 11
1890.793260619863
 21
175.9359999999999
 72
     1
 10
1890.793260619863
 20
175.9359999999999
 11
1876.16089539752
 21
150.592
 97
        1
330
25C7
 75
     0
 76
     1
 98
        1
 10
0.0
 20
0.0
  0
LWPOLYLINE
  5
25C9
102
{ACAD_REACTORS
330
25CE
102
}
330
2004
100
AcDbEntity
  8
WAKU
  6
Continuous
 62
     5
100
AcDbPolyline
 90
        4
 70
     1
 43
0.0
 10
1885.69691908368
 20
194.368
 10
1912.301219487945
 20
194.368
 10
1907.867169420561
 20
202.048
 10
1881.262869016305
 20
202.048
  0
LWPOLYLINE
  5
25CA
102
{ACAD_REACTORS
330
25CE
102
}
330
2004
100
AcDbEntity
  8
WAKU
  6
Continuous
 62
     5
100
AcDbPolyline
 90
        4
 70
     1
 43
0.0
 10
1894.106923175614
 20
179.801445620907
 10
1920.711223579879
 20
179.801445620907
 10
1916.277173512495
 20
187.4814456209069
 10
1889.67287310824
 20
187.4814456209069
  0
LWPOLYLINE
  5
25CB
102
{ACAD_REACTORS
330
25CE
102
}
330
2004
100
AcDbEntity
  8
WAKU
  6
Continuous
 62
     5
100
AcDbPolyline
 90
        4
 70
     1
 43
0.0
 10
1902.581517629864
 20
165.224799936228
 10
1929.185818034129
 20
165.224799936228
 10
1924.751767966745
 20
172.904799936228
 10
1898.14746756249
 20
172.904799936228
  0
LWPOLYLINE
  5
25CC
102
{ACAD_REACTORS
330
25CE
102
}
330
2004
100
AcDbEntity
  8
WAKU
  6
Continuous
 62
     5
100
AcDbPolyline
 90
        4
 70
     1
 43
0.0
 10
1919.480960321884
 20
135.9541065740469
 10
1946.085260726149
 20
135.9541065740469
 10
1941.651210658765
 20
143.6341065740469
 10
1915.04691025451
 20
143.6341065740469
  0
LWPOLYLINE
  5
25CD
102
{ACAD_REACTORS
330
25CE
102
}
330
2004
100
AcDbEntity
  8
WAKU
  6
Continuous
 62
     5
100
AcDbPolyline
 90
        4
 70
     1
 43
0.0
 10
1910.954438975874
 20
150.722474757159
 10
1937.558739380139
 20
150.722474757159
 10
1933.124689312755
 20
158.402474757159
 10
1906.5203889085
 20
158.402474757159
  0
HATCH
  5
25CE
330
2004
100
AcDbEntity
  8
WAKU-MOJI
  6
Continuous
100
AcDbHatch
 10
0.0
 20
0.0
 30
0.0
210
0.0
220
0.0
230
1.0
  2
SOLID
 70
     1
 71
     1
 91
        5
 92
        1
 93
        4
 72
     1
 10
1919.480960321884
 20
135.9541065740469
 11
1946.085260726149
 21
135.9541065740469
 72
     1
 10
1946.085260726149
 20
135.9541065740469
 11
1941.651210658765
 21
143.6341065740469
 72
     1
 10
1941.651210658765
 20
143.6341065740469
 11
1915.04691025451
 21
143.6341065740469
 72
     1
 10
1915.04691025451
 20
143.6341065740469
 11
1919.480960321884
 21
135.9541065740469
 97
        1
330
25CC
 92
        1
 93
        4
 72
     1
 10
1910.954438975874
 20
150.722474757159
 11
1937.558739380139
 21
150.722474757159
 72
     1
 10
1937.558739380139
 20
150.722474757159
 11
1933.124689312755
 21
158.402474757159
 72
     1
 10
1933.124689312755
 20
158.402474757159
 11
1906.5203889085
 21
158.402474757159
 72
     1
 10
1906.5203889085
 20
158.402474757159
 11
1910.954438975874
 21
150.722474757159
 97
        1
330
25CD
 92
        1
 93
        4
 72
     1
 10
1902.581517629864
 20
165.224799936228
 11
1929.185818034129
 21
165.224799936228
 72
     1
 10
1929.185818034129
 20
165.224799936228
 11
1924.751767966745
 21
172.904799936228
 72
     1
 10
1924.751767966745
 20
172.904799936228
 11
1898.14746756249
 21
172.904799936228
 72
     1
 10
1898.14746756249
 20
172.904799936228
 11
1902.581517629864
 21
165.224799936228
 97
        1
330
25CB
 92
        1
 93
        4
 72
     1
 10
1894.106923175614
 20
179.801445620907
 11
1920.711223579879
 21
179.801445620907
 72
     1
 10
1920.711223579879
 20
179.801445620907
 11
1916.277173512495
 21
187.4814456209069
 72
     1
 10
1916.277173512495
 20
187.4814456209069
 11
1889.67287310824
 21
187.4814456209069
 72
     1
 10
1889.67287310824
 20
187.4814456209069
 11
1894.106923175614
 21
179.801445620907
 97
        1
330
25CA
 92
        1
 93
        4
 72
     1
 10
1885.69691908368
 20
194.368
 11
1912.301219487945
 21
194.368
 72
     1
 10
1912.301219487945
 20
194.368
 11
1907.867169420561
 21
202.048
 72
     1
 10
1907.867169420561
 20
202.048
 11
1881.262869016305
 21
202.048
 72
     1
 10
1881.262869016305
 20
202.048
 11
1885.69691908368
 21
194.368
 97
        1
330
25C9
 75
     0
 76
     1
 98
        1
 10
0.0
 20
0.0
  0
LWPOLYLINE
  5
25CF
102
{ACAD_REACTORS
330
25D0
102
}
330
2004
100
AcDbEntity
  8
WAKU
  6
Continuous
 62
     7
100
AcDbPolyline
 90
        7
 70
     1
 43
0.0
 10
1843.0
 20
126.5
 10
1846.499999999999
 20
126.5
 10
1853.5
 20
102.0
 10
1850.0
 20
102.0
 10
1844.75
 20
120.375
 10
1839.5
 20
102.0
 10
1836.0
 20
102.0
  0
HATCH
  5
25D0
330
2004
100
AcDbEntity
  8
WAKU-MOJI
  6
Continuous
100
AcDbHatch
 10
0.0
 20
0.0
 30
0.0
210
0.0
220
0.0
230
1.0
  2
SOLID
 70
     1
 71
     1
 91
        2
 92
        1
 93
       69
 72
     1
 10
1869.39
 20
108.4624190070459
 11
1868.95046664168
 21
107.893481361466
 72
     1
 10
1868.95046664168
 20
107.893481361466
 11
1868.195926382809
 21
107.118483114415
 72
     1
 10
1868.195926382809
 20
107.118483114415
 11
1867.36244213045
 21
106.4822917315619
 72
     1
 10
1867.36244213045
 20
106.4822917315619
 11
1866.466236707499
 21
105.997289954516
 72
     1
 10
1866.466236707499
 20
105.997289954516
 11
1865.524753733089
 21
105.672917791188
 72
     1
 10
1865.524753733089
 20
105.672917791188
 11
1864.55631810239
 21
105.5154887767669
 72
     1
 10
1864.55631810239
 20
105.5154887767669
 11
1863.579779313389
 21
105.528067087948
 72
     1
 10
1863.579779313389
 20
105.528067087948
 11
1862.61414458282
 21
105.71040790221
 72
     1
 10
1862.61414458282
 20
105.71040790221
 11
1861.6782088923
 21
106.058962163013
 72
     1
 10
1861.6782088923
 20
106.058962163013
 11
1860.79018916545
 21
106.566945658146
 72
     1
 10
1860.79018916545
 20
106.566945658146
 11
1859.967369696139
 21
107.224471066698
 72
     1
 10
1859.967369696139
 20
107.224471066698
 11
1859.2257657294
 21
108.018740404517
 72
     1
 10
1859.2257657294
 20
108.018740404517
 11
1858.57981174287
 21
108.934294122408
 72
     1
 10
1858.57981174287
 20
108.934294122408
 11
1858.04208049616
 21
109.9533120086809
 72
     1
 10
1858.04208049616
 20
109.9533120086809
 11
1857.6230383163
 21
111.055960039295
 72
     1
 10
1857.6230383163
 20
111.055960039295
 11
1857.33084138268
 21
112.220776424578
 72
     1
 10
1857.33084138268
 20
112.220776424578
 11
1857.17117697625
 21
113.425089338548
 72
     1
 10
1857.17117697625
 20
113.425089338548
 11
1857.14715278305
 21
114.6454582002219
 72
     1
 10
1857.14715278305
 20
114.6454582002219
 11
1857.259236406689
 21
115.858129917856
 72
     1
 10
1857.259236406689
 20
115.858129917856
 11
1857.50524626691
 21
117.039501215859
 72
     1
 10
1857.50524626691
 20
117.039501215859
 11
1857.88039406164
 21
118.1665780457059
 72
     1
 10
1857.88039406164
 20
118.1665780457059
 11
1858.37737796575
 21
119.217423138934
 72
     1
 10
1858.37737796575
 20
119.217423138934
 11
1858.98652475288
 21
120.171582991124
 72
     1
 10
1858.98652475288
 20
120.171582991124
 11
1859.695978073699
 21
121.010485966092
 72
     1
 10
1859.695978073699
 20
121.010485966092
 11
1860.49192922631
 21
121.717803771669
 72
     1
 10
1860.49192922631
 20
121.717803771669
 11
1861.35888592692
 21
122.2797692713309
 72
     1
 10
1861.35888592692
 20
122.2797692713309
 11
1862.27997384949
 21
122.6854444458539
 72
     1
 10
1862.27997384949
 20
122.6854444458539
 11
1863.23726506533
 21
122.9269332894139
 72
     1
 10
1863.23726506533
 20
122.9269332894139
 11
1864.21212698983
 21
122.999535496362
 72
     1
 10
1864.21212698983
 20
122.999535496362
 11
1865.18558504451
 21
122.9018379473209
 72
     1
 10
1865.18558504451
 20
122.9018379473209
 11
1866.13869197564
 21
122.635742213956
 72
     1
 10
1866.13869197564
 20
122.635742213956
 11
1867.05289664094
 21
122.2064275470369
 72
     1
 10
1867.05289664094
 20
122.2064275470369
 11
1867.9104050865
 21
121.622250068216
 72
     1
 10
1867.9104050865
 20
121.622250068216
 11
1868.694526885819
 21
120.894580127628
 72
     1
 10
1868.694526885819
 20
120.894580127628
 11
1869.39
 21
120.0375809929539
 72
     1
 10
1869.39
 20
120.0375809929539
 11
1869.39
 21
124.858811196359
 72
     1
 10
1869.39
 20
124.858811196359
 11
1868.15817603983
 21
125.567524273263
 72
     1
 10
1868.15817603983
 20
125.567524273263
 11
1866.85759997358
 21
126.082591372041
 72
     1
 10
1866.85759997358
 20
126.082591372041
 11
1865.51052501831
 21
126.3951995518289
 72
     1
 10
1865.51052501831
 20
126.3951995518289
 11
1864.14
 21
126.5
 72
     1
 10
1864.14
 20
126.5
 11
1862.769474981689
 21
126.3951995518289
 72
     1
 10
1862.769474981689
 20
126.3951995518289
 11
1861.422400026419
 21
126.082591372041
 72
     1
 10
1861.422400026419
 20
126.082591372041
 11
1860.121823960169
 21
125.567524273263
 72
     1
 10
1860.121823960169
 20
125.567524273263
 11
1858.89
 21
124.858811196359
 72
     1
 10
1858.89
 20
124.858811196359
 11
1857.74800499541
 21
123.968578418568
 72
     1
 10
1857.74800499541
 20
123.968578418568
 11
1856.71537879754
 21
122.912058069535
 72
     1
 10
1856.71537879754
 20
122.912058069535
 11
1855.80978992694
 21
121.7073275053569
 72
     1
 10
1855.80978992694
 20
121.7073275053569
 11
1855.04673326026
 21
120.375
 72
     1
 10
1855.04673326026
 20
120.375
 11
1854.439264908629
 21
118.9378720464719
 72
     1
 10
1854.439264908629
 20
118.9378720464719
 11
1853.99777882397
 21
117.4205333025059
 72
     1
 10
1853.99777882397
 20
117.4205333025059
 11
1853.72982895558
 21
115.8489458546959
 72
     1
 10
1853.72982895558
 20
115.8489458546959
 11
1853.64
 21
114.25
 72
     1
 10
1853.64
 20
114.25
 11
1853.72982895558
 21
112.6510541453049
 72
     1
 10
1853.72982895558
 20
112.6510541453049
 11
1853.99777882397
 21
111.0794666974939
 72
     1
 10
1853.99777882397
 20
111.0794666974939
 11
1854.439264908629
 21
109.5621279535279
 72
     1
 10
1854.439264908629
 20
109.5621279535279
 11
1855.04673326026
 21
108.125
 72
     1
 10
1855.04673326026
 20
108.125
 11
1855.80978992694
 21
106.7926724946429
 72
     1
 10
1855.80978992694
 20
106.7926724946429
 11
1856.71537879754
 21
105.587941930465
 72
     1
 10
1856.71537879754
 20
105.587941930465
 11
1857.74800499541
 21
104.5314215814319
 72
     1
 10
1857.74800499541
 20
104.5314215814319
 11
1858.89
 21
103.6411888036409
 72
     1
 10
1858.89
 20
103.6411888036409
 11
1860.121823960169
 21
102.9324757267369
 72
     1
 10
1860.121823960169
 20
102.9324757267369
 11
1861.422400026419
 21
102.4174086279589
 72
     1
 10
1861.422400026419
 20
102.4174086279589
 11
1862.769474981689
 21
102.104800448171
 72
     1
 10
1862.769474981689
 20
102.104800448171
 11
1864.14
 21
102.0
 72
     1
 10
1864.14
 20
102.0
 11
1865.51052501831
 21
102.104800448171
 72
     1
 10
1865.51052501831
 20
102.104800448171
 11
1866.85759997358
 21
102.4174086279589
 72
     1
 10
1866.85759997358
 20
102.4174086279589
 11
1868.15817603983
 21
102.9324757267369
 72
     1
 10
1868.15817603983
 20
102.9324757267369
 11
1869.39
 21
103.6411888036409
 72
     1
 10
1869.39
 20
103.6411888036409
 11
1869.39
 21
108.4624190070459
 97
        1
330
256B
 92
        1
 93
        7
 72
     1
 10
1843.0
 20
126.5
 11
1846.499999999999
 21
126.5
 72
     1
 10
1846.499999999999
 20
126.5
 11
1853.5
 21
102.0
 72
     1
 10
1853.5
 20
102.0
 11
1850.0
 21
102.0
 72
     1
 10
1850.0
 20
102.0
 11
1844.75
 21
120.375
 72
     1
 10
1844.75
 20
120.375
 11
1839.5
 21
102.0
 72
     1
 10
1839.5
 20
102.0
 11
1836.0
 21
102.0
 72
     1
 10
1836.0
 20
102.0
 11
1843.0
 21
126.5
 97
        1
330
25CF
 75
     0
 76
     1
 98
        1
 10
0.0
 20
0.0
  0
HATCH
  5
25D1
330
2004
100
AcDbEntity
  8
WAKU-MOJI
  6
Continuous
100
AcDbHatch
 10
0.0
 20
0.0
 30
0.0
210
0.0
220
0.0
230
1.0
  2
SOLID
 70
     1
 71
     1
 91
        6
 92
        1
 93
       12
 72
     1
 10
1888.5
 20
102.0
 11
1874.5
 21
102.0
 72
     1
 10
1874.5
 20
102.0
 11
1874.5
 21
126.5
 72
     1
 10
1874.5
 20
126.5
 11
1888.5
 21
126.5
 72
     1
 10
1888.5
 20
126.5
 11
1888.5
 21
123.0
 72
     1
 10
1888.5
 20
123.0
 11
1878.0
 21
123.0
 72
     1
 10
1878.0
 20
123.0
 11
1878.0
 21
116.0
 72
     1
 10
1878.0
 20
116.0
 11
1888.5
 21
116.0
 72
     1
 10
1888.5
 20
116.0
 11
1888.5
 21
112.5
 72
     1
 10
1888.5
 20
112.5
 11
1878.0
 21
112.5
 72
     1
 10
1878.0
 20
112.5
 11
1878.0
 21
105.4999999999999
 72
     1
 10
1878.0
 20
105.4999999999999
 11
1888.5
 21
105.4999999999999
 72
     1
 10
1888.5
 20
105.4999999999999
 11
1888.5
 21
102.0
 97
        1
330
2571
 92
        1
 93
        6
 72
     1
 10
1902.5
 20
126.5
 11
1902.5
 21
105.4999999999999
 72
     1
 10
1902.5
 20
105.4999999999999
 11
1909.499999999999
 21
105.4999999999999
 72
     1
 10
1909.499999999999
 20
105.4999999999999
 11
1909.499999999999
 21
102.0
 72
     1
 10
1909.499999999999
 20
102.0
 11
1899.0
 21
102.0
 72
     1
 10
1899.0
 20
102.0
 11
1899.0
 21
126.5
 72
     1
 10
1899.0
 20
126.5
 11
1902.5
 21
126.5
 97
        1
330
2570
 92
        1
 93
        4
 72
     1
 10
1913.0
 20
126.5
 11
1913.0
 21
102.0
 72
     1
 10
1913.0
 20
102.0
 11
1916.5
 21
102.0
 72
     1
 10
1916.5
 20
102.0
 11
1916.5
 21
126.5
 72
     1
 10
1916.5
 20
126.5
 11
1913.0
 21
126.5
 97
        1
330
256F
 92
        1
 93
       10
 72
     1
 10
1937.5
 20
102.0
 11
1941.0
 21
102.0
 72
     1
 10
1941.0
 20
102.0
 11
1941.0
 21
119.5
 72
     1
 10
1941.0
 20
119.5
 11
1951.5
 21
102.0
 72
     1
 10
1951.5
 20
102.0
 11
1955.0
 21
102.0
 72
     1
 10
1955.0
 20
102.0
 11
1955.0
 21
126.5
 72
     1
 10
1955.0
 20
126.5
 11
1951.5
 21
126.5
 72
     1
 10
1951.5
 20
126.5
 11
1951.5
 21
109.0
 72
     1
 10
1951.5
 20
109.0
 11
1941.0
 21
126.5
 72
     1
 10
1941.0
 20
126.5
 11
1937.5
 21
126.5
 72
     1
 10
1937.5
 20
126.5
 11
1937.5
 21
102.0
 97
        1
330
256E
 92
        1
 93
       48
 72
     1
 10
1927.0
 20
126.5
 11
1925.85789581807
 21
126.3951995518289
 72
     1
 10
1925.85789581807
 20
126.3951995518289
 11
1924.73533335535
 21
126.082591372041
 72
     1
 10
1924.73533335535
 20
126.082591372041
 11
1923.65151996681
 21
125.567524273263
 72
     1
 10
1923.65151996681
 20
125.567524273263
 11
1922.625
 21
124.858811196359
 72
     1
 10
1922.625
 20
124.858811196359
 11
1921.67333749617
 21
123.968578418568
 72
     1
 10
1921.67333749617
 20
123.968578418568
 11
1920.81281566462
 21
122.912058069535
 72
     1
 10
1920.81281566462
 20
122.912058069535
 11
1920.05815827245
 21
121.7073275053569
 72
     1
 10
1920.05815827245
 20
121.7073275053569
 11
1919.42227771689
 21
120.375
 72
     1
 10
1919.42227771689
 20
120.375
 11
1918.91605409053
 21
118.9378720464719
 72
     1
 10
1918.91605409053
 20
118.9378720464719
 11
1918.54814901997
 21
117.4205333025059
 72
     1
 10
1918.54814901997
 20
117.4205333025059
 11
1918.324857462979
 21
115.8489458546959
 72
     1
 10
1918.324857462979
 20
115.8489458546959
 11
1918.25
 21
114.25
 72
     1
 10
1918.25
 20
114.25
 11
1918.324857462979
 21
112.6510541453039
 72
     1
 10
1918.324857462979
 20
112.6510541453039
 11
1918.54814901997
 21
111.0794666974939
 72
     1
 10
1918.54814901997
 20
111.0794666974939
 11
1918.91605409053
 21
109.5621279535279
 72
     1
 10
1918.91605409053
 20
109.5621279535279
 11
1919.42227771689
 21
108.125
 72
     1
 10
1919.42227771689
 20
108.125
 11
1920.05815827245
 21
106.7926724946429
 72
     1
 10
1920.05815827245
 20
106.7926724946429
 11
1920.81281566462
 21
105.587941930465
 72
     1
 10
1920.81281566462
 20
105.587941930465
 11
1921.67333749617
 21
104.5314215814319
 72
     1
 10
1921.67333749617
 20
104.5314215814319
 11
1922.625
 21
103.6411888036409
 72
     1
 10
1922.625
 20
103.6411888036409
 11
1923.65151996681
 21
102.9324757267369
 72
     1
 10
1923.65151996681
 20
102.9324757267369
 11
1924.73533335535
 21
102.4174086279589
 72
     1
 10
1924.73533335535
 20
102.4174086279589
 11
1925.85789581807
 21
102.104800448171
 72
     1
 10
1925.85789581807
 20
102.104800448171
 11
1927.0
 21
102.0
 72
     1
 10
1927.0
 20
102.0
 11
1928.142104181929
 21
102.104800448171
 72
     1
 10
1928.142104181929
 20
102.104800448171
 11
1929.264666644649
 21
102.4174086279589
 72
     1
 10
1929.264666644649
 20
102.4174086279589
 11
1930.34848003319
 21
102.9324757267369
 72
     1
 10
1930.34848003319
 20
102.9324757267369
 11
1931.375
 21
103.6411888036409
 72
     1
 10
1931.375
 20
103.6411888036409
 11
1932.326662503829
 21
104.5314215814319
 72
     1
 10
1932.326662503829
 20
104.5314215814319
 11
1933.18718433538
 21
105.587941930465
 72
     1
 10
1933.18718433538
 20
105.587941930465
 11
1933.94184172755
 21
106.7926724946429
 72
     1
 10
1933.94184172755
 20
106.7926724946429
 11
1934.577722283109
 21
108.125
 72
     1
 10
1934.577722283109
 20
108.125
 11
1935.08394590947
 21
109.5621279535279
 72
     1
 10
1935.08394590947
 20
109.5621279535279
 11
1935.45185098003
 21
111.0794666974939
 72
     1
 10
1935.45185098003
 20
111.0794666974939
 11
1935.67514253702
 21
112.6510541453039
 72
     1
 10
1935.67514253702
 20
112.6510541453039
 11
1935.75
 21
114.25
 72
     1
 10
1935.75
 20
114.25
 11
1935.67514253702
 21
115.8489458546959
 72
     1
 10
1935.67514253702
 20
115.8489458546959
 11
1935.45185098003
 21
117.4205333025059
 72
     1
 10
1935.45185098003
 20
117.4205333025059
 11
1935.08394590947
 21
118.9378720464719
 72
     1
 10
1935.08394590947
 20
118.9378720464719
 11
1934.577722283109
 21
120.375
 72
     1
 10
1934.577722283109
 20
120.375
 11
1933.94184172755
 21
121.7073275053569
 72
     1
 10
1933.94184172755
 20
121.7073275053569
 11
1933.18718433538
 21
122.912058069535
 72
     1
 10
1933.18718433538
 20
122.912058069535
 11
1932.326662503829
 21
123.968578418568
 72
     1
 10
1932.326662503829
 20
123.968578418568
 11
1931.375
 21
124.858811196359
 72
     1
 10
1931.375
 20
124.858811196359
 11
1930.34848003319
 21
125.567524273263
 72
     1
 10
1930.34848003319
 20
125.567524273263
 11
1929.264666644649
 21
126.082591372041
 72
     1
 10
1929.264666644649
 20
126.082591372041
 11
1928.142104181929
 21
126.3951995518289
 72
     1
 10
1928.142104181929
 20
126.3951995518289
 11
1927.0
 21
126.5
 97
        1
330
256D
 92
       16
 93
       45
 72
     1
 10
1932.25
 20
114.25
 11
1932.19890736089
 21
115.4677646334009
 72
     1
 10
1932.19890736089
 20
115.4677646334009
 11
1932.04662390368
 21
116.661826863399
 72
     1
 10
1932.04662390368
 20
116.661826863399
 11
1931.79611365262
 21
117.808945626913
 72
     1
 10
1931.79611365262
 20
117.808945626913
 11
1931.45225250482
 21
118.886793562041
 72
     1
 10
1931.45225250482
 20
118.886793562041
 11
1931.02173332638
 21
119.8743915847569
 72
     1
 10
1931.02173332638
 20
119.8743915847569
 11
1930.512935683379
 21
120.7525172229269
 72
     1
 10
1930.512935683379
 20
120.7525172229269
 11
1929.93576274322
 21
121.504078759857
 72
     1
 10
1929.93576274322
 20
121.504078759857
 11
1929.30144852064
 21
122.114447905118
 72
     1
 10
1929.30144852064
 20
122.114447905118
 11
1928.62233922047
 21
122.571744517583
 72
     1
 10
1928.62233922047
 20
122.571744517583
 11
1927.911652932749
 21
122.8670678388569
 72
     1
 10
1927.911652932749
 20
122.8670678388569
 11
1927.18322235769
 21
122.9946697364169
 72
     1
 10
1927.18322235769
 20
122.9946697364169
 11
1926.45122556785
 21
122.9520665844719
 72
     1
 10
1926.45122556785
 20
122.9520665844719
 11
1925.7299100481
 21
122.740087604915
 72
     1
 10
1925.7299100481
 20
122.740087604915
 11
1925.03331538457
 21
122.3628587274589
 72
     1
 10
1925.03331538457
 20
122.3628587274589
 11
1924.375
 21
121.8277222831139
 72
     1
 10
1924.375
 20
121.8277222831139
 11
1923.767777254539
 21
121.145094094059
 72
     1
 10
1923.767777254539
 20
121.145094094059
 11
1923.223466048219
 21
120.328260741516
 72
     1
 10
1923.223466048219
 20
120.328260741516
 11
1922.752660779529
 21
119.393120957559
 72
     1
 10
1922.752660779529
 20
119.393120957559
 11
1922.36452513749
 21
118.357876174377
 72
     1
 10
1922.36452513749
 20
118.357876174377
 11
1922.066613740869
 21
117.2426762540999
 72
     1
 10
1922.066613740869
 20
117.2426762540999
 11
1921.864725096149
 21
116.0692272946549
 72
     1
 10
1921.864725096149
 20
116.0692272946549
 11
1921.762788736139
 21
114.8603691452609
 72
     1
 10
1921.762788736139
 20
114.8603691452609
 11
1921.762788736139
 21
113.6396308547389
 72
     1
 10
1921.762788736139
 20
113.6396308547389
 11
1921.864725096149
 21
112.430772705345
 72
     1
 10
1921.864725096149
 20
112.430772705345
 11
1922.066613740869
 21
111.2573237458999
 72
     1
 10
1922.066613740869
 20
111.2573237458999
 11
1922.36452513749
 21
110.142123825624
 72
     1
 10
1922.36452513749
 20
110.142123825624
 11
1922.752660779529
 21
109.106879042441
 72
     1
 10
1922.752660779529
 20
109.106879042441
 11
1923.223466048219
 21
108.171739258484
 72
     1
 10
1923.223466048219
 20
108.171739258484
 11
1923.767777254539
 21
107.3549059059409
 72
     1
 10
1923.767777254539
 20
107.3549059059409
 11
1924.375
 21
106.6722777168859
 72
     1
 10
1924.375
 20
106.6722777168859
 11
1925.03331538457
 21
106.137141272541
 72
     1
 10
1925.03331538457
 20
106.137141272541
 11
1925.7299100481
 21
105.7599123950849
 72
     1
 10
1925.7299100481
 20
105.7599123950849
 11
1926.45122556785
 21
105.547933415528
 72
     1
 10
1926.45122556785
 20
105.547933415528
 11
1927.18322235769
 21
105.5053302635829
 72
     1
 10
1927.18322235769
 20
105.5053302635829
 11
1927.911652932749
 21
105.632932161143
 72
     1
 10
1927.911652932749
 20
105.632932161143
 11
1928.62233922047
 21
105.9282554824169
 72
     1
 10
1928.62233922047
 20
105.9282554824169
 11
1929.30144852064
 21
106.385552094882
 72
     1
 10
1929.30144852064
 20
106.385552094882
 11
1929.93576274322
 21
106.995921240143
 72
     1
 10
1929.93576274322
 20
106.995921240143
 11
1930.512935683379
 21
107.747482777073
 72
     1
 10
1930.512935683379
 20
107.747482777073
 11
1931.02173332638
 21
108.625608415243
 72
     1
 10
1931.02173332638
 20
108.625608415243
 11
1931.45225250482
 21
109.6132064379599
 72
     1
 10
1931.45225250482
 20
109.6132064379599
 11
1931.79611365262
 21
110.691054373087
 72
     1
 10
1931.79611365262
 20
110.691054373087
 11
1932.04662390368
 21
111.838173136601
 72
     1
 10
1932.04662390368
 20
111.838173136601
 11
1932.19890736089
 21
113.032235366599
 72
     1
 10
1932.19890736089
 20
113.032235366599
 11
1932.25
 21
114.25
 97
        1
330
256C
 75
     0
 76
     1
 98
        1
 10
0.0
 20
0.0
  0
TEXT
  5
25D2
330
2004
100
AcDbEntity
  8
WAKU-MOJI
  6
Continuous
100
AcDbText
 10
2859.333333333333
 20
191.0
 30
0.0
 40
40.0
  1
島根小学校改築電気設備工事
 41
0.7
  7
M7
 72
     1
 11
3074.0
 21
211.0
 31
0.0
100
AcDbText
 73
     2
  0
TEXT
  5
25D3
330
2004
100
AcDbEntity
  8
WAKU-MOJI
  6
Continuous
100
AcDbText
 10
2638.416666666666
 20
86.5
 30
0.0
 40
25.0
  1
1P-体育館・1L-体育館・1T-体育館
 41
0.7
  7
M7
 72
     1
 11
2849.0
 21
99.0
 31
0.0
100
AcDbText
 73
     2
  0
TEXT
  5
25D4
330
2004
100
AcDbEntity
  8
WAKU-MOJI
  6
Continuous
100
AcDbText
 10
3647.0
 20
195.0
 30
0.0
 40
40.0
  1
8160628
 41
0.7
  7
M7
 11
3647.0
 21
215.0
 31
0.0
100
AcDbText
 73
     2
  0
TEXT
  5
25D5
330
2004
100
AcDbEntity
  8
WAKU-MOJI
  6
Continuous
100
AcDbText
 10
3648.0
 20
83.0
 30
0.0
 40
40.0
  1
3408105
 41
0.7
  7
M7
 11
3648.0
 21
103.0
 31
0.0
100
AcDbText
 73
     2
  0
TEXT
  5
25D6
330
2004
100
AcDbEntity
  8
WAKU-MOJI
  6
Continuous
100
AcDbText
 10
1708.133333333333
 20
113.0
 30
0.0
 40
40.0
  1
青柳
 41
0.7
  7
M7
 72
     1
 11
1738.0
 21
133.0
 31
0.0
100
AcDbText
 73
     2
  0
TEXT
  5
25D7
330
2004
100
AcDbEntity
  8
WAKU-MOJI
  6
Continuous
100
AcDbText
 10
3992.333333333334
 20
55.0
 30
0.0
 40
40.0
  1
14
 41
0.7
  7
M7
 72
     1
 11
4025.0
 21
75.0
 31
0.0
100
AcDbText
 73
     2
  0
TEXT
  5
25D8
330
2004
100
AcDbEntity
  8
WAKU-MOJI
  6
Continuous
100
AcDbText
 10
1629.133333333333
 20
169.5
 30
0.0
 40
35.0
  1
01
 41
0.7
  7
M7
 72
     1
 11
1652.0
 21
187.0
 31
0.0
100
AcDbText
 73
     2
  0
TEXT
  5
25D9
330
2004
100
AcDbEntity
  8
WAKU-MOJI
  6
Continuous
100
AcDbText
 10
1684.683333333333
 20
169.5
 30
0.0
 40
35.0
  1
11
 41
0.7
  7
M7
 72
     1
 11
1710.0
 21
187.0
 31
0.0
100
AcDbText
 73
     2
  0
TEXT
  5
25DA
330
2004
100
AcDbEntity
  8
WAKU-MOJI
  6
Continuous
100
AcDbText
 10
1739.416666666666
 20
169.5
 30
0.0
 40
35.0
  1
15
 41
0.7
  7
M7
 72
     1
 11
1768.0
 21
187.0
 31
0.0
100
AcDbText
 73
     2
  0
ENDBLK
  5
2006
330
2004
100
AcDbEntity
  8
0
100
AcDbBlockEnd
  0
BLOCK
  5
2093
330
2088
100
AcDbEntity
  8
0
100
AcDbBlockBegin
  2
AO02
 70
     2
 10
0.0
 20
0.0
 30
0.0
  3
AO02
  1

  0
ATTDEF
  5
2089
330
2088
100
AcDbEntity
  8
ZOKUSEI
  6
Continuous
100
AcDbText
 10
57.5
 20
-13.33333333333333
 30
0.0
 40
25.0
  1
WL
 41
0.7
  7
M7
 72
     4
 11
75.0
 21
0.0
 31
0.0
100
AcDbAttributeDefinition
  3

  2
KIGO
 70
     0
  0
ATTDEF
  5
208A
330
2088
100
AcDbEntity
  8
ZOKUSEI
  6
Continuous
100
AcDbText
 10
117.4166666666666
 20
-37.5
 30
0.0
 40
25.0
  1
1
 41
0.7
  7
M7
 72
     4
 11
125.0
 21
-25.0
 31
0.0
100
AcDbAttributeDefinition
  3

  2
BANGO
 70
     0
  0
LINE
  5
208B
330
2088
100
AcDbEntity
  8
KYU-JIS
  6
ByBlock
100
AcDbLine
 10
0.0
 20
0.0
 30
0.0
 11
45.0
 21
0.0
 31
0.0
  0
LINE
  5
208C
330
2088
100
AcDbEntity
  8
SIN-JIS
  6
ByBlock
100
AcDbLine
 10
49.99996200000009
 20
-0.0000379999996767
 30
0.0
 11
-0.0000379999999041
 21
-0.0000379999996767
 31
0.0
  0
CIRCLE
  5
208D
330
2088
100
AcDbEntity
  8
KYU-JIS
  6
ByBlock
100
AcDbCircle
 10
75.0
 20
0.0
 30
0.0
 40
30.0
  0
CIRCLE
  5
208E
330
2088
100
AcDbEntity
  8
SIN-JIS
  6
ByBlock
100
AcDbCircle
 10
75.0
 20
0.0
 30
0.0
 40
25.0
  0
LINE
  5
208F
330
2088
100
AcDbEntity
  8
KYU-JIS
  6
ByBlock
100
AcDbLine
 10
39.64462294067198
 20
-35.35533905932743
 30
0.0
 11
53.78675856440304
 21
-21.21320343559637
 31
0.0
  0
LINE
  5
2090
330
2088
100
AcDbEntity
  8
KYU-JIS
  6
ByBlock
100
AcDbLine
 10
110.3553010593268
 20
-35.35533905932743
 30
0.0
 11
96.21316543559579
 21
-21.21320343559637
 31
0.0
  0
LINE
  5
2091
330
2088
100
AcDbEntity
  8
KYU-JIS
  6
ByBlock
100
AcDbLine
 10
53.78675856440304
 20
21.21320343559637
 30
0.0
 11
39.64462294067198
 21
35.35533905932743
 31
0.0
  0
LINE
  5
2092
330
2088
100
AcDbEntity
  8
KYU-JIS
  6
ByBlock
100
AcDbLine
 10
96.21316543559579
 20
21.21320343559637
 30
0.0
 11
110.3553010593268
 21
35.35533905932743
 31
0.0
  0
ENDBLK
  5
2094
330
2088
100
AcDbEntity
  8
0
100
AcDbBlockEnd
  0
BLOCK
  5
209D
330
2099
100
AcDbEntity
  8
0
 62
     7
100
AcDbBlockBegin
  2
AM01
 70
     0
 10
0.0
 20
0.0
 30
0.0
  3
AM01
  1

  0
LINE
  5
209A
330
2099
100
AcDbEntity
  8
JIS
  6
ByBlock
 62
     7
100
AcDbLine
 10
0.0
 20
40.0
 30
0.0
 11
0.0
 21
0.0
 31
0.0
  0
CIRCLE
  5
209B
330
2099
100
AcDbEntity
  8
JIS
  6
Continuous
 62
     7
100
AcDbCircle
 10
0.0
 20
49.99999999999909
 30
0.0
 40
5.0
  0
CIRCLE
  5
209C
330
2099
100
AcDbEntity
  8
JIS
  6
Continuous
 62
     7
100
AcDbCircle
 10
0.0
 20
49.99999999999909
 30
0.0
 40
10.0
  0
ENDBLK
  5
209E
330
2099
100
AcDbEntity
  8
0
 62
     7
100
AcDbBlockEnd
  0
BLOCK
  5
20A8
330
209F
100
AcDbEntity
  8
0
 62
     7
100
AcDbBlockBegin
  2
AQ02
 70
     2
 10
0.0
 20
0.0
 30
0.0
  3
AQ02
  1

  0
ATTDEF
  5
20A0
330
209F
100
AcDbEntity
  8
ZOKUSEI
  6
Continuous
100
AcDbText
 10
81.0
 20
17.5
 30
0.0
 40
25.0
  1
F
 41
0.7
  7
M7
 72
     2
 11
95.0
 21
30.0
 31
0.0
100
AcDbAttributeDefinition
  3

  2
KIGO
 70
     8
 74
     2
  0
ATTDEF
  5
20A1
330
209F
100
AcDbEntity
  8
ZOKUSEI
  6
Continuous
100
AcDbText
 10
105.0
 20
17.5
 30
0.0
 40
25.0
  1
1
 41
0.7
  7
M7
 11
105.0
 21
30.0
 31
0.0
100
AcDbAttributeDefinition
  3
番号を入力してください
  2
BANGO
 70
     0
 74
     2
  0
ATTDEF
  5
20A2
330
209F
100
AcDbEntity
  8
ZOKUSEI
  6
ByBlock
100
AcDbText
 10
60.91666666666665
 20
-42.5
 30
0.0
 40
25.0
  1
(1A)
 41
0.7
  7
M7
 72
     1
 11
100.0
 21
-30.0
 31
0.0
100
AcDbAttributeDefinition
  3

  2
TEIKAKU
 70
     8
 74
     2
  0
LINE
  5
20A3
330
209F
100
AcDbEntity
  8
C-CIRCUIT
  6
Continuous
100
AcDbLine
 10
137.5
 20
0.0
 30
0.0
 11
200.0
 21
0.0
 31
0.0
  0
LINE
  5
20A4
330
209F
100
AcDbEntity
  8
C-CIRCUIT
  6
Continuous
100
AcDbLine
 10
0.0
 20
0.0
 30
0.0
 11
62.5
 21
0.0
 31
0.0
  0
LINE
  5
20A5
330
209F
100
AcDbEntity
  8
KYU-JIS
  6
ByBlock
 62
     7
100
AcDbLine
 10
137.5
 20
12.5
 30
0.0
 11
62.5
 21
-12.5
 31
0.0
  0
LINE
  5
20A6
330
209F
100
AcDbEntity
  8
SIN-JIS
  6
ByBlock
 62
     7
100
AcDbLine
 10
137.5
 20
0.0
 30
0.0
 11
62.5
 21
0.0
 31
0.0
  0
LWPOLYLINE
  5
20A7
330
209F
100
AcDbEntity
  8
C-CIRCUIT
  6
ByBlock
 62
     7
100
AcDbPolyline
 90
        4
 70
     1
 43
0.0
 10
62.5
 20
12.5
 10
137.5
 20
12.5
 10
137.5
 20
-12.5
 10
62.5
 20
-12.5
  0
ENDBLK
  5
20A9
330
209F
100
AcDbEntity
  8
0
 62
     7
100
AcDbBlockEnd
  0
BLOCK
  5
20E8
330
20D7
100
AcDbEntity
  8
0
100
AcDbBlockBegin
  2
AP01
 70
     2
 10
0.0
 20
0.0
 30
0.0
  3
AP01
  1

  0
ATTDEF
  5
20D8
330
20D7
100
AcDbEntity
  8
ZOKUSEI
  6
ByBlock
100
AcDbText
 10
40.0
 20
-69.99999103693653
 30
0.0
 40
25.0
  1
MCCB
 41
0.7
  7
M7
100
AcDbAttributeDefinition
  3

  2
KIGO
 70
     8
  0
ATTDEF
  5
20D9
330
20D7
100
AcDbEntity
  8
ZOKUSEI
  6
ByBlock
100
AcDbText
 10
130.0
 20
-69.99999103693653
 30
0.0
 40
25.0
  1
C
 41
0.7
  7
M7
100
AcDbAttributeDefinition
  3
番号を入力してください
  2
BANGO
 70
     0
  0
ATTDEF
  5
20DA
330
20D7
100
AcDbEntity
  8
ZOKUSEI
100
AcDbText
 10
39.99999699999989
 20
-99.99999900000013
 30
0.0
 40
25.0
  1
3P
 41
0.7
  7
M7
100
AcDbAttributeDefinition
  3
極数を入力してください:
  2
KYOKU
 70
     0
  0
ATTDEF
  5
20DB
330
20D7
100
AcDbEntity
  8
ZOKUSEI
100
AcDbText
 10
79.99999899999966
 20
-99.99999900000013
 30
0.0
 40
25.0
  1
100AF
 41
0.7
  7
M7
100
AcDbAttributeDefinition
  3
フレーム電流を入力してください
  2
TEIKAKU1
 70
     0
  0
ATTDEF
  5
20DC
330
20D7
100
AcDbEntity
  8
ZOKUSEI
100
AcDbText
 10
79.99999899999966
 20
-129.9999990000001
 30
0.0
 40
25.0
  1
75AT
 41
0.7
  7
M7
100
AcDbAttributeDefinition
  3
定格電流を入力してください
  2
TEIKAKU2
 70
     0
  0
ATTDEF
  5
20DD
330
20D7
100
AcDbEntity
  8
ZOKUSEI
100
AcDbText
 10
39.99999899999966
 20
-159.9999980000002
 30
0.0
 40
25.0
  1
(EA103B)
 41
0.7
  7
M7
100
AcDbAttributeDefinition
  3
形式を入力してください:
  2
KATA
 70
     0
  0
ARC
  5
20DE
330
20D7
100
AcDbEntity
  8
KYU-JIS
  6
ByBlock
100
AcDbCircle
 10
-35.83331999999973
 20
-99.99999900000013
 30
0.0
 40
60.83331999999999
100
AcDbArc
 50
321.8412169999999
 51
38.15879799999999
  0
LINE
  5
20DF
330
20D7
100
AcDbEntity
  8
SIN-JIS
  6
ByBlock
100
AcDbLine
 10
-25.0
 20
-50.0
 30
0.0
 11
0.0
 21
-129.9999990000001
 31
0.0
  0
CIRCLE
  5
20E0
330
20D7
100
AcDbEntity
  8
KYU-JIS
  6
ByBlock
100
AcDbCircle
 10
0.0
 20
-141.999968
 30
0.0
 40
8.0
  0
LINE
  5
20E1
330
20D7
100
AcDbEntity
  8
SIN-JIS
  6
ByBlock
100
AcDbLine
 10
0.0
 20
-129.9999990000001
 30
0.0
 11
0.0
 21
-199.9999980000002
 31
0.0
  0
LINE
  5
20E2
330
20D7
100
AcDbEntity
  8
KYU-JIS
  6
ByBlock
100
AcDbLine
 10
0.0
 20
-149.9999980000002
 30
0.0
 11
0.0
 21
-199.9999980000002
 31
0.0
  0
LINE
  5
20E3
330
20D7
100
AcDbEntity
  8
KYU-JIS
  6
ByBlock
100
AcDbLine
 10
0.0
 20
0.0
 30
0.0
 11
0.0
 21
-50.0
 31
0.0
  0
LINE
  5
20E4
330
20D7
100
AcDbEntity
  8
SIN-JIS
  6
ByBlock
100
AcDbLine
 10
0.0
 20
0.0
 30
0.0
 11
0.0
 21
-60.0
 31
0.0
  0
CIRCLE
  5
20E5
330
20D7
100
AcDbEntity
  8
KYU-JIS
  6
ByBlock
100
AcDbCircle
 10
0.0
 20
-58.00003000000015
 30
0.0
 40
8.0
  0
LINE
  5
20E6
330
20D7
100
AcDbEntity
  8
SIN-JIS
  6
ByBlock
100
AcDbLine
 10
-7.999878000000535
 20
-51.99996899999996
 30
0.0
 11
7.999877999999625
 21
-68.00003000000015
 31
0.0
  0
LINE
  5
20E7
330
20D7
100
AcDbEntity
  8
SIN-JIS
  6
ByBlock
100
AcDbLine
 10
-7.999878000000535
 20
-68.00003000000015
 30
0.0
 11
7.999877999999625
 21
-51.99996899999996
 31
0.0
  0
ENDBLK
  5
20E9
330
20D7
100
AcDbEntity
  8
0
100
AcDbBlockEnd
  0
BLOCK
  5
2114
330
20FA
100
AcDbEntity
  8
0
100
AcDbBlockBegin
  2
AP02
 70
     2
 10
0.0
 20
0.0
 30
0.0
  3
AP02
  1

  0
ATTDEF
  5
20FB
330
20FA
100
AcDbEntity
  8
ZOKUSEI
  6
ByBlock
100
AcDbText
 10
50.0
 20
-69.99999900000057
 30
0.0
 40
25.0
  1
ELCB
 41
0.7
  7
M7
100
AcDbAttributeDefinition
  3

  2
KIGO
 70
     8
  0
ATTDEF
  5
20FC
330
20FA
100
AcDbEntity
  8
ZOKUSEI
  6
ByBlock
100
AcDbText
 10
140.0000010000012
 20
-69.99999103693653
 30
0.0
 40
25.0
  1
1
 41
0.7
  7
M7
100
AcDbAttributeDefinition
  3
番号を入力してください
  2
BANGO
 70
     0
  0
ATTDEF
  5
20FD
330
20FA
100
AcDbEntity
  8
ZOKUSEI
100
AcDbText
 10
49.99999800000114
 20
-99.99999900000013
 30
0.0
 40
25.0
  1
3P
 41
0.7
  7
M7
100
AcDbAttributeDefinition
  3
極数を入力してください
  2
KYOKU
 70
     0
  0
ATTDEF
  5
20FE
330
20FA
100
AcDbEntity
  8
ZOKUSEI
100
AcDbText
 10
89.99999899999966
 20
-100.0000069630641
 30
0.0
 40
25.0
  1
50AF
 41
0.7
  7
M7
100
AcDbAttributeDefinition
  3
フレーム電流を入力してください
  2
TEIKAKU1
 70
     0
  0
ATTDEF
  5
20FF
330
20FA
100
AcDbEntity
  8
ZOKUSEI
100
AcDbText
 10
89.99999899999966
 20
-130.0000069630641
 30
0.0
 40
25.0
  1
30AT
 41
0.7
  7
M7
100
AcDbAttributeDefinition
  3
定格電流を入力してください
  2
TEIKAKU2
 70
     0
  0
ATTDEF
  5
2100
330
20FA
100
AcDbEntity
  8
ZOKUSEI
100
AcDbText
 10
90.00000000000182
 20
-159.9999980000002
 30
0.0
 40
25.0
  1
30mA
 41
0.7
  7
M7
100
AcDbAttributeDefinition
  3
感度電流を入力してください
  2
TEIKAKU3
 70
     0
  0
ATTDEF
  5
2101
330
20FA
100
AcDbEntity
  8
ZOKUSEI
100
AcDbText
 10
50.00000000000182
 20
-189.9999980000002
 30
0.0
 40
25.0
  1
(EG53A)
 41
0.7
  7
M7
100
AcDbAttributeDefinition
  3
型式を入力してください:
  2
KATA
 70
     0
  0
LWPOLYLINE
  5
2102
330
20FA
100
AcDbEntity
  8
SIN-JIS
  6
HIDDEN
100
AcDbPolyline
 90
        4
 70
     0
 43
0.0
 10
-15.625
 20
-79.99999900000012
 10
20.0
 20
-79.99999900000012
 10
20.0
 20
-164.9999980000002
 10
10.0
 20
-164.9999980000002
  0
LINE
  5
2103
330
20FA
100
AcDbEntity
  8
SIN-JIS
  6
ByBlock
100
AcDbLine
 10
-25.0
 20
-50.0
 30
0.0
 11
0.0
 21
-129.9999990000001
 31
0.0
  0
ARC
  5
2104
330
20FA
100
AcDbEntity
  8
KYU-JIS
  6
ByBlock
100
AcDbCircle
 10
-35.83328199999959
 20
-99.99999900000013
 30
0.0
 40
60.83331999999999
100
AcDbArc
 50
321.841156
 51
38.15884
  0
LWPOLYLINE
  5
2105
330
20FA
100
AcDbEntity
  8
KYU-JIS
  6
ByBlock
100
AcDbPolyline
 90
        5
 70
     0
 43
0.0
 10
20.0
 20
-159.9999980000002
 10
-20.0
 20
-167.4999980000002
 10
20.0
 20
-174.9999980000002
 10
-20.0
 20
-182.4999980000002
 10
20.0
 20
-189.9999980000002
  0
LINE
  5
2106
330
20FA
100
AcDbEntity
  8
KYU-JIS
  6
ByBlock
100
AcDbLine
 10
0.0
 20
-149.9999980000002
 30
0.0
 11
0.0
 21
-199.9999980000002
 31
0.0
  0
ARC
  5
2107
330
20FA
100
AcDbEntity
  8
SIN-JIS
  6
ByBlock
100
AcDbCircle
 10
-10.0
 20
-157.4999980000002
 30
0.0
 40
7.5
100
AcDbArc
 50
90.0
 51
270.0
  0
LINE
  5
2108
330
20FA
100
AcDbEntity
  8
SIN-JIS
  6
ByBlock
100
AcDbLine
 10
0.0
 20
-129.9999990000001
 30
0.0
 11
0.0
 21
-199.9999980000002
 31
0.0
  0
ARC
  5
2109
330
20FA
100
AcDbEntity
  8
SIN-JIS
  6
ByBlock
100
AcDbCircle
 10
-10.0
 20
-172.4999980000002
 30
0.0
 40
7.5
100
AcDbArc
 50
90.0
 51
270.0
  0
LINE
  5
210A
330
20FA
100
AcDbEntity
  8
SIN-JIS
  6
ByBlock
100
AcDbLine
 10
-10.0
 20
-164.9999980000002
 30
0.0
 11
10.0
 21
-164.9999980000002
 31
0.0
  0
LINE
  5
210B
330
20FA
100
AcDbEntity
  8
SIN-JIS
  6
ByBlock
100
AcDbLine
 10
-10.0
 20
-179.9999980000002
 30
0.0
 11
10.0
 21
-179.9999980000002
 31
0.0
  0
LINE
  5
210C
330
20FA
100
AcDbEntity
  8
SIN-JIS
  6
ByBlock
100
AcDbLine
 10
-10.0
 20
-149.9999980000002
 30
0.0
 11
10.0
 21
-149.9999980000002
 31
0.0
  0
CIRCLE
  5
210D
330
20FA
100
AcDbEntity
  8
KYU-JIS
  6
ByBlock
100
AcDbCircle
 10
0.0
 20
-141.999968
 30
0.0
 40
8.0
  0
LWPOLYLINE
  5
210E
330
20FA
100
AcDbEntity
  8
KYU-JIS
  6
ByBlock
100
AcDbPolyline
 90
        4
 70
     0
 43
0.0
 10
25.0
 20
-99.99999900000013
 10
30.0
 20
-99.99999900000013
 10
30.0
 20
-174.9999980000002
 10
20.0
 20
-174.9999980000002
  0
LINE
  5
210F
330
20FA
100
AcDbEntity
  8
SIN-JIS
  6
ByBlock
100
AcDbLine
 10
0.0
 20
0.0
 30
0.0
 11
0.0
 21
-60.0
 31
0.0
  0
LINE
  5
2110
330
20FA
100
AcDbEntity
  8
KYU-JIS
  6
ByBlock
100
AcDbLine
 10
0.0
 20
0.0
 30
0.0
 11
0.0
 21
-50.0
 31
0.0
  0
LINE
  5
2111
330
20FA
100
AcDbEntity
  8
SIN-JIS
  6
ByBlock
100
AcDbLine
 10
-7.999878000000535
 20
-68.00003000000015
 30
0.0
 11
7.999877999999625
 21
-51.99996899999996
 31
0.0
  0
LINE
  5
2112
330
20FA
100
AcDbEntity
  8
SIN-JIS
  6
ByBlock
100
AcDbLine
 10
-7.999878000000535
 20
-51.99996899999996
 30
0.0
 11
7.999877999999625
 21
-68.00003000000015
 31
0.0
  0
CIRCLE
  5
2113
330
20FA
100
AcDbEntity
  8
KYU-JIS
  6
ByBlock
100
AcDbCircle
 10
0.0
 20
-58.00003000000015
 30
0.0
 40
8.0
  0
ENDBLK
  5
2115
330
20FA
100
AcDbEntity
  8
0
100
AcDbBlockEnd
  0
BLOCK
  5
2128
330
211F
100
AcDbEntity
  8
0
100
AcDbBlockBegin
  2
AP04
 70
     2
 10
0.0
 20
0.0
 30
0.0
  3
AP04
  1

  0
ATTDEF
  5
2120
330
211F
100
AcDbEntity
  8
ZOKUSEI
  6
Continuous
100
AcDbText
 10
-9.3
 20
-102.0
 30
0.0
 40
30.0
  1
A
 41
0.7
  7
M7
 72
     1
 11
0.5
 21
-87.0
 31
0.0
100
AcDbAttributeDefinition
  3

  2
KIGO
 70
     8
 74
     2
  0
ATTDEF
  5
2121
330
211F
100
AcDbEntity
  8
ZOKUSEI
  6
Continuous
100
AcDbText
 10
-8.095238095238549
 20
-137.585882547095
 30
0.0
 40
25.0
  1
1
 41
0.8
  7
M8
 72
     1
 11
-0.0000000000004547
 21
-137.585882547095
 31
0.0
100
AcDbAttributeDefinition
  3
番号を入れるナリ
  2
BANGO
 70
     0
  0
ATTDEF
  5
2122
330
211F
100
AcDbEntity
  8
ZOKUSEI
100
AcDbText
 10
50.0
 20
-82.5
 30
0.0
 40
25.0
  1
20A
 41
0.7
  7
M7
 11
50.0
 21
-70.0
 31
0.0
100
AcDbAttributeDefinition
  3
定格電流を入力してくだされい
  2
TEIKAKU1
 70
     0
 74
     2
  0
ATTDEF
  5
2123
330
211F
100
AcDbEntity
  8
ZOKUSEI
100
AcDbText
 10
50.0
 20
-112.5
 30
0.0
 40
25.0
  1
2倍延長目盛
 41
0.7
  7
M7
 11
50.0
 21
-100.0
 31
0.0
100
AcDbAttributeDefinition
  3
公称を入力するべし
  2
TEIKAKU2
 70
     0
 74
     2
  0
ATTDEF
  5
2124
330
211F
100
AcDbEntity
  8
ZOKUSEI
100
AcDbText
 10
50.0
 20
-142.5
 30
0.0
 40
25.0
  1
赤色指針付
 41
0.7
  7
M7
 11
50.0
 21
-130.0
 31
0.0
100
AcDbAttributeDefinition
  3
オプションを入力するっちゃ
  2
TEIKAKU3
 70
     0
 74
     2
  0
CIRCLE
  5
2125
330
211F
100
AcDbEntity
  8
LAY-1
  6
ByBlock
 62
     3
100
AcDbCircle
 10
0.0
 20
-100.0
 30
0.0
 40
44.999999
  0
LINE
  5
2126
330
211F
100
AcDbEntity
  8
LAY-1
  6
ByBlock
 62
     3
100
AcDbLine
 10
0.0
 20
-144.9999990000001
 30
0.0
 11
0.0
 21
-200.0
 31
0.0
  0
LINE
  5
2127
330
211F
100
AcDbEntity
  8
LAY-1
  6
ByBlock
 62
     3
100
AcDbLine
 10
0.0
 20
0.0
 30
0.0
 11
0.0
 21
-55.00000099999988
 31
0.0
  0
ENDBLK
  5
2129
330
211F
100
AcDbEntity
  8
0
100
AcDbBlockEnd
  0
BLOCK
  5
2156
330
2143
100
AcDbEntity
  8
0
100
AcDbBlockBegin
  2
AP06
 70
     2
 10
0.0
 20
0.0
 30
0.0
  3
AP06
  1

  0
ATTDEF
  5
2144
330
2143
100
AcDbEntity
  8
ZOKUSEI
  6
Continuous
100
AcDbText
 10
25.0
 20
-62.49999900000012
 30
0.0
 40
25.0
  1
52
 41
0.7
  7
M7
 11
25.0
 21
-49.99999900000012
 31
0.0
100
AcDbAttributeDefinition
  3
記号
  2
KIGO
 70
     8
 74
     2
  0
ATTDEF
  5
2145
330
2143
100
AcDbEntity
  8
ZOKUSEI
  6
Continuous
100
AcDbText
 10
25.0
 20
-99.49999900000012
 30
0.0
 40
25.0
  1
1
 41
0.7
  7
M7
 11
25.0
 21
-86.99999900000012
 31
0.0
100
AcDbAttributeDefinition
  3
番号
  2
BANGO
 70
     0
 74
     2
  0
ATTDEF
  5
2146
330
2143
100
AcDbEntity
  8
ZOKUSEI
  6
Continuous
100
AcDbText
 10
25.0
 20
-137.4999990000001
 30
0.0
 40
25.0
  1
(SW-05/2E)
 41
0.7
  7
M7
 11
25.0
 21
-124.9999990000001
 31
0.0
100
AcDbAttributeDefinition
  3
型式
  2
KATASIKI
 70
     0
 74
     2
  0
ATTDEF
  5
2147
330
2143
100
AcDbEntity
  8
ZOKUSEI
  6
Continuous
100
AcDbText
 10
25.0
 20
-175.0
 30
0.0
 40
25.0
  1
49
 41
0.7
  7
M7
 11
25.0
 21
-162.5
 31
0.0
100
AcDbAttributeDefinition
  3

  2
KIGO
 70
     8
 74
     2
  0
ATTDEF
  5
2148
330
2143
100
AcDbEntity
  8
ZOKUSEI
  6
Continuous
100
AcDbText
 10
88.0
 20
-175.0
 30
0.0
 40
25.0
  1
1
 41
0.7
  7
M7
 11
88.0
 21
-162.5
 31
0.0
100
AcDbAttributeDefinition
  3
番号を入力してってばー
  2
BANGO
 70
     0
 74
     2
  0
ATTDEF
  5
2149
330
2143
100
AcDbEntity
  8
ZOKUSEI
  6
Continuous
100
AcDbText
 10
25.0
 20
-213.0
 30
0.0
 40
25.0
  1
(2.8～4.2A)
 41
0.7
  7
M7
 11
25.0
 21
-200.4999999999999
 31
0.0
100
AcDbAttributeDefinition
  3
定格を入力しろっての！
  2
TEIKAKU1
 70
     0
 74
     2
  0
ATTDEF
  5
214A
330
2143
100
AcDbEntity
  8
ZOKUSEI
  6
Continuous
100
AcDbText
 10
25.0
 20
-250.0
 30
0.0
 40
25.0
  1
2E
 41
0.7
  7
M7
 11
25.0
 21
-237.5
 31
0.0
100
AcDbAttributeDefinition
  3

  2
TEIKAKU2
 70
     8
 74
     2
  0
LWPOLYLINE
  5
214B
330
2143
100
AcDbEntity
  8
LAY-1
  6
ByBlock
 62
     3
100
AcDbPolyline
 90
        6
 70
     0
 43
0.0
 10
0.0
 20
-150.0
 10
0.0
 20
-189.9999990000001
 10
20.0
 20
-189.9999990000001
 10
20.0
 20
-209.9999979999997
 10
0.0
 20
-209.9999979999997
 10
0.0
 20
-249.9999979999997
  0
LINE
  5
214C
330
2143
100
AcDbEntity
  8
SIN-JIS
  6
ByBlock
100
AcDbLine
 10
-20.0
 20
-44.99999900000012
 30
0.0
 11
0.0
 21
-99.99999800000024
 31
0.0
  0
CIRCLE
  5
214D
330
2143
100
AcDbEntity
  8
KYU-JIS
  6
ByBlock
 62
     3
100
AcDbCircle
 10
0.0
 20
-99.99999800000024
 30
0.0
 40
8.0
  0
LINE
  5
214E
330
2143
100
AcDbEntity
  8
KYU-JIS
  6
ByBlock
 62
     3
100
AcDbLine
 10
0.0
 20
-149.9999990000001
 30
0.0
 11
0.0
 21
-107.999878
 31
0.0
  0
LINE
  5
214F
330
2143
100
AcDbEntity
  8
SIN-JIS
  6
ByBlock
100
AcDbLine
 10
0.0
 20
-99.99999800000024
 30
0.0
 11
0.0
 21
-149.9999980000002
 31
0.0
  0
LINE
  5
2150
330
2143
100
AcDbEntity
  8
KYU-JIS
  6
ByBlock
 62
     3
100
AcDbLine
 10
0.0
 20
-42.00012100000003
 30
0.0
 11
0.0
 21
0.0
 31
0.0
  0
LINE
  5
2151
330
2143
100
AcDbEntity
  8
SIN-JIS
  6
ByBlock
100
AcDbLine
 10
0.0
 20
-0.0000000000004547
 30
0.0
 11
0.0
 21
-59.99999900000012
 31
0.0
  0
CIRCLE
  5
2152
330
2143
100
AcDbEntity
  8
KYU-JIS
  6
ByBlock
 62
     3
100
AcDbCircle
 10
0.0
 20
-49.99999900000012
 30
0.0
 40
8.0
  0
ARC
  5
2153
330
2143
100
AcDbEntity
  8
SIN-JIS
  6
ByBlock
100
AcDbCircle
 10
0.0
 20
-52.00012100000003
 30
0.0
 40
7.999877999999999
100
AcDbArc
 50
90.0
 51
270.0
  0
LINE
  5
2154
330
2143
100
AcDbEntity
  8
KYU-JIS
  6
ByBlock
 62
     3
100
AcDbLine
 10
23.90502899999956
 20
-44.19036800000003
 30
0.0
 11
0.0
 21
-92.00012000000015
 31
0.0
  0
ARC
  5
2155
330
2143
100
AcDbEntity
  8
KYU-JIS
  6
ByBlock
 62
     3
100
AcDbCircle
 10
20.0
 20
-49.99999900000012
 30
0.0
 40
7.0
100
AcDbArc
 50
56.09239599999999
 51
250.7774959999999
  0
ENDBLK
  5
2157
330
2143
100
AcDbEntity
  8
0
100
AcDbBlockEnd
  0
BLOCK
  5
2166
330
2162
100
AcDbEntity
  8
0
100
AcDbBlockBegin
  2
AL01
 70
     0
 10
0.0
 20
0.0
 30
0.0
  3
AL01
  1

  0
CIRCLE
  5
2163
330
2162
100
AcDbEntity
  8
JIS
  6
Continuous
 62
     7
100
AcDbCircle
 10
0.0000000000006821
 20
-49.99999999999864
 30
0.0
 40
10.0
  0
CIRCLE
  5
2164
330
2162
100
AcDbEntity
  8
JIS
  6
Continuous
 62
     7
100
AcDbCircle
 10
0.0000000000006821
 20
-49.99999999999864
 30
0.0
 40
5.0
  0
LINE
  5
2165
330
2162
100
AcDbEntity
  8
JIS
  6
ByBlock
 62
     7
100
AcDbLine
 10
0.0000000000006821
 20
-39.99999999999954
 30
0.0
 11
0.0000000000006821
 21
0.0000000000004547
 31
0.0
  0
ENDBLK
  5
2167
330
2162
100
AcDbEntity
  8
0
100
AcDbBlockEnd
  0
BLOCK
  5
217D
330
216F
100
AcDbEntity
  8
0
100
AcDbBlockBegin
  2
AP09
 70
     2
 10
0.0
 20
0.0
 30
0.0
  3
AP09
  1

  0
ATTDEF
  5
2170
330
216F
100
AcDbEntity
  8
ZOKUSEI
100
AcDbText
 10
-43.66666666666667
 20
-137.5
 30
0.0
 40
25.0
  1
SC
 41
0.7
  7
M7
 72
     1
 11
-25.0
 21
-125.0
 31
0.0
100
AcDbAttributeDefinition
  3
文字記号を入力してください
  2
KIGO
 70
     8
 74
     2
  0
ATTDEF
  5
2171
330
216F
100
AcDbEntity
  8
ZOKUSEI
100
AcDbText
 10
25.0
 20
-137.5
 30
0.0
 40
25.0
  1
1
 41
0.7
  7
M7
 11
25.0
 21
-125.0
 31
0.0
100
AcDbAttributeDefinition
  3
番号を入力してください
  2
BANGO
 70
     0
 74
     2
  0
ATTDEF
  5
2172
330
216F
100
AcDbEntity
  8
ZOKUSEI
100
AcDbText
 10
-51.91666666666668
 20
-162.5
 30
0.0
 40
25.0
  1
100μF
 41
0.7
  7
M7
 72
     1
 11
0.0
 21
-150.0
 31
0.0
100
AcDbAttributeDefinition
  3
容量を入力してください
  2
TEIKAKU1
 70
     0
 74
     2
  0
LINE
  5
2173
330
216F
100
AcDbEntity
  8
JIS
  6
ByBlock
 62
     3
100
AcDbLine
 10
0.0
 20
-60.00003000000015
 30
0.0
 11
0.0
 21
-80.00003000000015
 31
0.0
  0
LINE
  5
2174
330
216F
100
AcDbEntity
  8
JIS
  6
ByBlock
 62
     3
100
AcDbLine
 10
49.99999900000012
 20
-0.0000310000000354
 30
0.0
 11
49.99999900000012
 21
-100.0000300000001
 31
0.0
  0
LINE
  5
2175
330
216F
100
AcDbEntity
  8
JIS
  6
ByBlock
 62
     3
100
AcDbLine
 10
-49.99999900000012
 20
-100.0000300000001
 30
0.0
 11
-49.99999900000012
 21
-0.0000310000000354
 31
0.0
  0
LINE
  5
2176
330
216F
100
AcDbEntity
  8
JIS
  6
ByBlock
 62
     3
100
AcDbLine
 10
49.99999900000012
 20
-100.0000300000001
 30
0.0
 11
-49.99999900000012
 21
-100.0000300000001
 31
0.0
  0
LINE
  5
2177
330
216F
100
AcDbEntity
  8
JIS
  6
ByBlock
 62
     3
100
AcDbLine
 10
-49.99999900000012
 20
-0.0000310000000354
 30
0.0
 11
49.99999900000012
 21
-0.0000310000000354
 31
0.0
  0
LWPOLYLINE
  5
2178
330
216F
100
AcDbEntity
  8
JIS
  6
ByBlock
 62
     3
100
AcDbPolyline
 90
        2
 70
     0
 43
5.0
 10
-20.0
 20
-57.50003000000015
 10
20.0
 20
-57.50003000000015
  0
TRACE
  5
2179
330
216F
100
AcDbEntity
  8
JIS
 62
     3
100
AcDbTrace
 10
-20.0
 20
-55.00003000000015
 30
0.0
 11
-20.0
 21
-60.00003000000015
 31
0.0
 12
20.0
 22
-55.00003000000015
 32
0.0
 13
20.0
 23
-60.00003000000015
 33
0.0
  0
LWPOLYLINE
  5
217A
330
216F
100
AcDbEntity
  8
JIS
  6
ByBlock
 62
     3
100
AcDbPolyline
 90
        2
 70
     0
 43
5.0
 10
-20.0
 20
-42.50003000000015
 10
20.0
 20
-42.50003000000015
  0
TRACE
  5
217B
330
216F
100
AcDbEntity
  8
JIS
 62
     3
100
AcDbTrace
 10
-20.0
 20
-40.00003000000015
 30
0.0
 11
-20.0
 21
-45.00003000000015
 31
0.0
 12
20.0
 22
-40.00003000000015
 32
0.0
 13
20.0
 23
-45.00003000000015
 33
0.0
  0
LINE
  5
217C
330
216F
100
AcDbEntity
  8
JIS
  6
ByBlock
 62
     3
100
AcDbLine
 10
0.0
 20
-40.00003000000015
 30
0.0
 11
0.0
 21
-20.00003100000003
 31
0.0
  0
ENDBLK
  5
217E
330
216F
100
AcDbEntity
  8
0
100
AcDbBlockEnd
  0
BLOCK
  5
2222
330
2214
100
AcDbEntity
  8
0
100
AcDbBlockBegin
  2
AJ03
 70
     2
 10
0.0
 20
0.0
 30
0.0
  3
AJ03
  1

  0
ATTDEF
  5
2215
330
2214
100
AcDbEntity
  8
ZOKUSEI
  6
Continuous
100
AcDbText
 10
31.33333233333299
 20
-70.0
 30
0.0
 40
25.0
  1
49
 41
0.7
  7
M7
 72
     1
 11
49.99999899999966
 21
-70.0
 31
0.0
100
AcDbAttributeDefinition
  3
文字記号を入力してください
  2
KIGO
 70
     0
  0
ATTDEF
  5
2216
330
2214
100
AcDbEntity
  8
ZOKUSEI
  6
Continuous
100
AcDbText
 10
42.41666566666633
 20
-109.9999990000001
 30
0.0
 40
25.0
  1
1
 41
0.7
  7
M7
 72
     1
 11
49.99999899999966
 21
-109.9999990000001
 31
0.0
100
AcDbAttributeDefinition
  3
番号を入力してください
  2
BANGO
 70
     0
  0
LINE
  5
2217
330
2214
100
AcDbEntity
  8
KYU-JIS
  6
ByBlock
100
AcDbLine
 10
0.0
 20
-42.00012199999991
 30
0.0
 11
0.0
 21
-0.0000009999998838
 31
0.0
  0
LINE
  5
2218
330
2214
100
AcDbEntity
  8
SIN-JIS
  6
ByBlock
100
AcDbLine
 10
0.0
 20
-0.0000009999998838
 30
0.0
 11
0.0
 21
-52.99987800000008
 31
0.0
  0
CIRCLE
  5
2219
330
2214
100
AcDbEntity
  8
KYU-JIS
  6
ByBlock
100
AcDbCircle
 10
0.0
 20
-99.99999900000013
 30
0.0
 40
8.0
  0
LINE
  5
221A
330
2214
100
AcDbEntity
  8
SIN-JIS
  6
ByBlock
100
AcDbLine
 10
-20.0
 20
-50.0
 30
0.0
 11
0.0
 21
-99.99999900000013
 31
0.0
  0
LINE
  5
221B
330
2214
100
AcDbEntity
  8
KYU-JIS
  6
ByBlock
100
AcDbLine
 10
15.0
 20
-42.00012199999991
 30
0.0
 11
15.0
 21
-107.9998770000001
 31
0.0
  0
LINE
  5
221C
330
2214
100
AcDbEntity
  8
SIN-JIS
  6
ByBlock
100
AcDbLine
 10
0.0
 20
-99.99999900000013
 30
0.0
 11
0.0
 21
-149.9999990000001
 31
0.0
  0
LINE
  5
221D
330
2214
100
AcDbEntity
  8
KYU-JIS
  6
ByBlock
100
AcDbLine
 10
0.0
 20
-107.9998770000001
 30
0.0
 11
0.0
 21
-149.9999990000001
 31
0.0
  0
CIRCLE
  5
221E
330
2214
100
AcDbEntity
  8
KYU-JIS
  6
ByBlock
100
AcDbCircle
 10
0.0
 20
-50.0
 30
0.0
 40
8.0
  0
CIRCLE
  5
221F
330
2214
100
AcDbEntity
  8
SIN-JIS
  6
ByBlock
100
AcDbCircle
 10
0.0
 20
-60.0
 30
0.0
 40
7.0
  0
LINE
  5
2220
330
2214
100
AcDbEntity
  8
KYU-JIS
  6
ByBlock
100
AcDbLine
 10
5.0
 20
-84.99999900000011
 30
0.0
 11
25.0
 21
-65.0
 31
0.0
  0
LINE
  5
2221
330
2214
100
AcDbEntity
  8
KYU-JIS
  6
ByBlock
100
AcDbLine
 10
5.0
 20
-65.0
 30
0.0
 11
25.0
 21
-84.99999900000011
 31
0.0
  0
ENDBLK
  5
2223
330
2214
100
AcDbEntity
  8
0
100
AcDbBlockEnd
  0
BLOCK
  5
22AA
330
22A6
100
AcDbEntity
  8
0
 62
     7
100
AcDbBlockBegin
  2
P10
 70
     0
 10
0.0
 20
0.0
 30
0.0
  3
P10
  1

  0
LINE
  5
22A7
330
22A6
100
AcDbEntity
  8
JIS
  6
Continuous
 62
     7
100
AcDbLine
 10
-10.0
 20
-10.0
 30
0.0
 11
10.0
 21
-10.0
 31
0.0
  0
LINE
  5
22A8
330
22A6
100
AcDbEntity
  8
JIS
  6
Continuous
 62
     7
100
AcDbLine
 10
-20.0
 20
0.0
 30
0.0
 11
20.0
 21
0.0
 31
0.0
  0
LINE
  5
22A9
330
22A6
100
AcDbEntity
  8
JIS
  6
Continuous
 62
     7
100
AcDbLine
 10
-5.0
 20
-20.0
 30
0.0
 11
5.0
 21
-20.0
 31
0.0
  0
ENDBLK
  5
22AB
330
22A6
100
AcDbEntity
  8
0
 62
     7
100
AcDbBlockEnd
  0
BLOCK
  5
22AE
330
22AC
100
AcDbEntity
  8
0
100
AcDbBlockBegin
  2
AN07
 70
     0
 10
0.0
 20
0.0
 30
0.0
  3
AN07
  1

  0
INSERT
  5
22AD
330
22AC
100
AcDbEntity
  8
C-CIRCUIT
  6
ByBlock
 62
     7
100
AcDbBlockReference
  2
P10
 10
0.0
 20
0.0
 30
0.0
  0
ENDBLK
  5
22AF
330
22AC
100
AcDbEntity
  8
0
100
AcDbBlockEnd
  0
BLOCK
  5
26BE
330
26BB
100
AcDbEntity
  8
0
100
AcDbBlockBegin
  2
UPARO1
 70
     0
 10
0.0
 20
0.0
 30
0.0
  3
UPARO1
  1

  0
SOLID
  5
26BC
330
26BB
100
AcDbEntity
  8
0
  6
ByBlock
 62
     0
100
AcDbTrace
 10
-2.5
 20
-0.4166666666665151
 30
0.0
 11
-2.5
 21
0.4166666666665151
 31
0.0
 12
0.0
 22
0.0
 32
0.0
 13
0.0
 23
0.0
 33
0.0
  0
LINE
  5
26BD
330
26BB
100
AcDbEntity
  8
0
  6
ByBlock
 62
     0
100
AcDbLine
 10
-2.5
 20
0.0
 30
0.0
 11
-5.0
 21
0.0
 31
0.0
  0
ENDBLK
  5
26BF
330
26BB
100
AcDbEntity
  8
0
100
AcDbBlockEnd
  0
BLOCK
  5
26C3
330
26C0
100
AcDbEntity
  8
0
100
AcDbBlockBegin
  2
TB-EU
 70
     0
 10
0.0
 20
0.0
 30
0.0
  3
TB-EU
  1

  0
CIRCLE
  5
26C1
330
26C0
100
AcDbEntity
  8
CONTROL-CIRCUIT
  6
Continuous
100
AcDbCircle
 10
0.0
 20
0.0
 30
0.0
 40
10.0
  0
LINE
  5
26C2
330
26C0
100
AcDbEntity
  8
CONTROL-CIRCUIT
  6
Continuous
100
AcDbLine
 10
0.0
 20
10.0
 30
0.0
 11
0.0
 21
25.0
 31
0.0
  0
ENDBLK
  5
26C4
330
26C0
100
AcDbEntity
  8
0
100
AcDbBlockEnd
  0
BLOCK
  5
26C8
330
26C5
100
AcDbEntity
  8
0
100
AcDbBlockBegin
  2
TB-ED
 70
     0
 10
0.0
 20
0.0
 30
0.0
  3
TB-ED
  1

  0
CIRCLE
  5
26C6
330
26C5
100
AcDbEntity
  8
CONTROL-CIRCUIT
  6
Continuous
100
AcDbCircle
 10
0.0
 20
0.0
 30
0.0
 40
10.0
  0
LINE
  5
26C7
330
26C5
100
AcDbEntity
  8
CONTROL-CIRCUIT
  6
Continuous
100
AcDbLine
 10
0.0
 20
-10.0
 30
0.0
 11
0.0
 21
-25.0
 31
0.0
  0
ENDBLK
  5
26C9
330
26C5
100
AcDbEntity
  8
0
100
AcDbBlockEnd
  0
BLOCK
  5
26CD
330
26CA
100
AcDbEntity
  8
0
100
AcDbBlockBegin
  2
AM03
 70
     0
 10
0.0
 20
0.0
 30
0.0
  3
AM03
  1

  0
CIRCLE
  5
26CB
330
26CA
100
AcDbEntity
  8
JIS
  6
Continuous
 62
     7
100
AcDbCircle
 10
-0.0000000000002274
 20
-0.0000000000011369
 30
0.0
 40
10.0
  0
LINE
  5
26CC
330
26CA
100
AcDbEntity
  8
JIS
  6
ByBlock
 62
     7
100
AcDbLine
 10
-0.0000000000002274
 20
-10.00000000000022
 30
0.0
 11
-0.0000000000002274
 21
-25.0
 31
0.0
  0
ENDBLK
  5
26CE
330
26CA
100
AcDbEntity
  8
0
100
AcDbBlockEnd
  0
BLOCK
  5
26D2
330
26CF
100
AcDbEntity
  8
0
100
AcDbBlockBegin
  2
AL03
 70
     0
 10
0.0
 20
0.0
 30
0.0
  3
AL03
  1

  0
CIRCLE
  5
26D0
330
26CF
100
AcDbEntity
  8
JIS
  6
Continuous
 62
     7
100
AcDbCircle
 10
0.0
 20
0.0
 30
0.0
 40
10.0
  0
LINE
  5
26D1
330
26CF
100
AcDbEntity
  8
JIS
  6
ByBlock
 62
     7
100
AcDbLine
 10
0.0
 20
9.99999999999909
 30
0.0
 11
0.0
 21
24.99999999999886
 31
0.0
  0
ENDBLK
  5
26D3
330
26CF
100
AcDbEntity
  8
0
100
AcDbBlockEnd
  0
BLOCK
  5
26E0
330
26D4
100
AcDbEntity
  8
0
100
AcDbBlockBegin
  2
AY03
 70
     2
 10
0.0
 20
0.0
 30
0.0
  3
AY03
  1

  0
ATTDEF
  5
26D5
330
26D4
100
AcDbEntity
  8
ZOKUSEI
  6
ByBlock
100
AcDbText
 10
55.0
 20
105.0000089630634
 30
0.0
 40
25.0
  1
SA
 41
0.7
  7
M7
100
AcDbAttributeDefinition
  3
記号
  2
KIGO
 70
     8
  0
ATTDEF
  5
26D6
330
26D4
100
AcDbEntity
  8
ZOKUSEI
  6
ByBlock
100
AcDbText
 10
145.0
 20
105.0000089630634
 30
0.0
 40
25.0
  1
1
 41
0.7
  7
M7
100
AcDbAttributeDefinition
  3
番号を入力してください
  2
BANGO
 70
     0
  0
ATTDEF
  5
26D7
330
26D4
100
AcDbEntity
  8
ZOKUSEI
100
AcDbText
 10
55.0
 20
74.99999800000023
 30
0.0
 40
25.0
  1
20kA(8/20)
 41
0.7
  7
M7
100
AcDbAttributeDefinition
  3
放電電流を入力してください
  2
TEIKAKU1
 70
     0
  0
ATTDEF
  5
26D8
330
26D4
100
AcDbEntity
  8
ZOKUSEI
100
AcDbText
 10
55.0
 20
44.99999800000023
 30
0.0
 40
25.0
  1
≧1.5kV
 41
0.7
  7
M7
100
AcDbAttributeDefinition
  3
制限電圧を入力してください
  2
TEIKAKU2
 70
     0
  0
ATTDEF
  5
26D9
330
26D4
100
AcDbEntity
  8
ZOKUSEI
100
AcDbText
 10
54.99999899999966
 20
15.00000199999976
 30
0.0
 40
25.0
  1
(DEHNgapC/T)
 41
0.7
  7
M7
100
AcDbAttributeDefinition
  3
形式を入力してください:
  2
KATA
 70
     0
  0
LINE
  5
26DA
330
26D4
100
AcDbEntity
  8
JIS
  6
ByBlock
 62
     3
100
AcDbLine
 10
0.0
 20
105.0
 30
0.0
 11
0.0
 21
149.9999980000002
 31
0.0
  0
CIRCLE
  5
26DB
330
26D4
100
AcDbEntity
  8
JIS
  6
Continuous
 62
     3
100
AcDbCircle
 10
0.0
 20
75.0
 30
0.0
 40
45.99999799999999
  0
HATCH
  5
26DC
330
26D4
100
AcDbEntity
  8
JIS
  6
Continuous
 62
     3
100
AcDbHatch
 10
0.0
 20
0.0
 30
0.0
210
0.0
220
0.0
230
1.0
  2
ANSI31
 70
     0
 71
     0
 91
        1
 92
        7
 72
     0
 73
     1
 93
        3
 10
10.0
 20
45.0
 10
-10.0
 20
45.0
 10
0.0
 20
70.0
 97
        0
 75
     0
 76
     1
 52
0.0
 41
1.0
 77
     0
 78
     1
 53
315.0
 43
-2200.0
 44
2100.0
 45
-0.0883883476483184
 46
-0.0883883476483185
 79
     0
 47
0.2261904761904762
 98
        1
 10
0.0
 20
55.0
  0
LINE
  5
26DD
330
26D4
100
AcDbEntity
  8
JIS
  6
ByBlock
 62
     3
100
AcDbLine
 10
0.0
 20
45.0
 30
0.0
 11
0.0
 21
0.0
 31
0.0
  0
HATCH
  5
26DE
330
26D4
100
AcDbEntity
  8
JIS
  6
Continuous
 62
     3
100
AcDbHatch
 10
0.0
 20
0.0
 30
0.0
210
0.0
220
0.0
230
1.0
  2
ANSI31
 70
     0
 71
     0
 91
        1
 92
        7
 72
     1
 73
     1
 93
        2
 10
30.0
 20
65.0
 42
1.0
 10
20.0
 20
65.0
 42
1.0
 97
        0
 75
     0
 76
     1
 52
0.0
 41
1.0
 77
     0
 78
     1
 53
45.0
 43
-2200.0
 44
-1950.0
 45
-0.0883883476483184
 46
0.0883883476483185
 79
     0
 47
0.2261904761904762
 98
        1
 10
25.0
 20
65.0
  0
HATCH
  5
26DF
330
26D4
100
AcDbEntity
  8
JIS
  6
Continuous
 62
     3
100
AcDbHatch
 10
0.0
 20
0.0
 30
0.0
210
0.0
220
0.0
230
1.0
  2
ANSI31
 70
     0
 71
     0
 91
        1
 92
        7
 72
     0
 73
     1
 93
        3
 10
10.0
 20
105.0
 10
-10.0
 20
105.0
 10
0.0
 20
80.0
 97
        0
 75
     0
 76
     1
 52
0.0
 41
1.0
 77
     0
 78
     1
 53
45.0
 43
-2200.0
 44
-1950.0
 45
-0.0883883476483184
 46
0.0883883476483185
 79
     0
 47
0.2261904761904762
 98
        1
 10
0.0
 20
95.0
  0
ENDBLK
  5
26E1
330
26D4
100
AcDbEntity
  8
0
100
AcDbBlockEnd
  0
BLOCK
  5
26ED
330
26E2
100
AcDbEntity
  8
0
100
AcDbBlockBegin
  2
AY02
 70
     2
 10
0.0
 20
0.0
 30
0.0
  3
AY02
  1

  0
ATTDEF
  5
26E3
330
26E2
100
AcDbEntity
  8
ZOKUSEI
  6
ByBlock
100
AcDbText
 10
40.0
 20
105.0000109630632
 30
0.0
 40
25.0
  1
SA
 41
0.7
  7
M7
100
AcDbAttributeDefinition
  3
記号
  2
KIGO
 70
     8
  0
ATTDEF
  5
26E4
330
26E2
100
AcDbEntity
  8
ZOKUSEI
  6
ByBlock
100
AcDbText
 10
130.0
 20
105.0000109630632
 30
0.0
 40
25.0
  1
1
 41
0.7
  7
M7
100
AcDbAttributeDefinition
  3
番号を入力してください
  2
BANGO
 70
     0
  0
ATTDEF
  5
26E5
330
26E2
100
AcDbEntity
  8
ZOKUSEI
100
AcDbText
 10
40.0
 20
75.0
 30
0.0
 40
25.0
  1
15kA(8/20)
 41
0.7
  7
M7
100
AcDbAttributeDefinition
  3
放電電流を入力してください
  2
TEIKAKU1
 70
     0
  0
ATTDEF
  5
26E6
330
26E2
100
AcDbEntity
  8
ZOKUSEI
100
AcDbText
 10
40.0
 20
45.0
 30
0.0
 40
25.0
  1
≧750V
 41
0.7
  7
M7
100
AcDbAttributeDefinition
  3
制限電圧を入力してください
  2
TEIKAKU2
 70
     0
  0
ATTDEF
  5
26E7
330
26E2
100
AcDbEntity
  8
ZOKUSEI
100
AcDbText
 10
39.99999899999966
 20
15.00000399999953
 30
0.0
 40
25.0
  1
(DEHNguardT150FM)
 41
0.7
  7
M7
100
AcDbAttributeDefinition
  3
形式を入力してください:
  2
KATA
 70
     0
  0
LWPOLYLINE
  5
26E8
330
26E2
100
AcDbEntity
  8
JIS
  6
Continuous
 62
     3
100
AcDbPolyline
 90
        4
 70
     1
 43
0.0
 10
-19.99999969999999
 20
25.00000050000017
 10
20.00000030000001
 20
25.00000050000017
 10
20.00000030000001
 20
124.9999994999998
 10
-19.99999969999999
 20
124.9999994999998
  0
LINE
  5
26E9
330
26E2
100
AcDbEntity
  8
JIS
  6
Continuous
 62
     3
100
AcDbLine
 10
-29.99999969999999
 20
124.9999994999998
 30
0.0
 11
30.00000030000001
 21
24.99999949999983
 31
0.0
  0
LINE
  5
26EA
330
26E2
100
AcDbEntity
  8
JIS
  6
Continuous
 62
     3
100
AcDbLine
 10
0.0
 20
25.0
 30
0.0
 11
0.0
 21
0.0
 31
0.0
  0
LINE
  5
26EB
330
26E2
100
AcDbEntity
  8
JIS
  6
Continuous
 62
     3
100
AcDbLine
 10
30.00000030000001
 20
24.99999949999983
 30
0.0
 11
30.00000030000001
 21
14.99999949999983
 31
0.0
  0
LINE
  5
26EC
330
26E2
100
AcDbEntity
  8
JIS
  6
Continuous
 62
     3
100
AcDbLine
 10
0.0
 20
125.0
 30
0.0
 11
0.0
 21
150.0
 31
0.0
  0
ENDBLK
  5
26EE
330
26E2
100
AcDbEntity
  8
0
100
AcDbBlockEnd
  0
ENDSEC
  0
SECTION
  2
ENTITIES
  0
ARC
  5
25F5
330
18
100
AcDbEntity
  8
KYU-JIS
  6
ByBlock
100
AcDbCircle
 10
614.1667180000004
 20
1925.000001
 30
0.0
 40
60.83331999999999
100
AcDbArc
 50
321.8411560000022
 51
38.15883999999607
  0
LWPOLYLINE
  5
25F6
330
18
100
AcDbEntity
  8
KYU-JIS
  6
ByBlock
100
AcDbPolyline
 90
        5
 70
     0
 43
0.0
 10
670.0
 20
1865.000001999999
 10
630.0
 20
1857.500001999999
 10
670.0
 20
1850.000001999999
 10
630.0
 20
1842.500001999999
 10
670.0
 20
1835.000002
  0
LINE
  5
25F7
330
18
100
AcDbEntity
  8
KYU-JIS
  6
ByBlock
100
AcDbLine
 10
650.0
 20
1875.000001999999
 30
0.0
 11
650.0
 21
1825.000001999999
 31
0.0
  0
CIRCLE
  5
25FE
330
18
100
AcDbEntity
  8
KYU-JIS
  6
ByBlock
100
AcDbCircle
 10
650.0
 20
1883.000031999999
 30
0.0
 40
8.0
  0
LWPOLYLINE
  5
25FF
330
18
100
AcDbEntity
  8
KYU-JIS
  6
ByBlock
100
AcDbPolyline
 90
        4
 70
     0
 43
0.0
 10
675.0
 20
1925.000001
 10
680.0
 20
1925.000001
 10
680.0
 20
1850.000001999999
 10
670.0
 20
1850.000001999999
  0
LINE
  5
2601
330
18
100
AcDbEntity
  8
KYU-JIS
  6
ByBlock
100
AcDbLine
 10
650.0
 20
2025.0
 30
0.0
 11
650.0
 21
1975.0
 31
0.0
  0
CIRCLE
  5
2604
330
18
100
AcDbEntity
  8
KYU-JIS
  6
ByBlock
100
AcDbCircle
 10
650.0
 20
1966.999969999999
 30
0.0
 40
8.0
  0
ARC
  5
260E
330
18
100
AcDbEntity
  8
KYU-JIS
  6
ByBlock
100
AcDbCircle
 10
1014.166718
 20
1925.000001
 30
0.0
 40
60.83331999999999
100
AcDbArc
 50
321.8411560000022
 51
38.15883999999607
  0
LWPOLYLINE
  5
260F
330
18
100
AcDbEntity
  8
KYU-JIS
  6
ByBlock
100
AcDbPolyline
 90
        5
 70
     0
 43
0.0
 10
1070.0
 20
1865.000001999999
 10
1030.0
 20
1857.500001999999
 10
1070.0
 20
1850.000001999999
 10
1030.0
 20
1842.500001999999
 10
1070.0
 20
1835.000002
  0
LINE
  5
2610
330
18
100
AcDbEntity
  8
KYU-JIS
  6
ByBlock
100
AcDbLine
 10
1050.0
 20
1875.000001999999
 30
0.0
 11
1050.0
 21
1825.000001999999
 31
0.0
  0
CIRCLE
  5
2617
330
18
100
AcDbEntity
  8
KYU-JIS
  6
ByBlock
100
AcDbCircle
 10
1050.0
 20
1883.000031999999
 30
0.0
 40
8.0
  0
LWPOLYLINE
  5
2618
330
18
100
AcDbEntity
  8
KYU-JIS
  6
ByBlock
100
AcDbPolyline
 90
        4
 70
     0
 43
0.0
 10
1075.0
 20
1925.000001
 10
1080.0
 20
1925.000001
 10
1080.0
 20
1850.000001999999
 10
1070.0
 20
1850.000001999999
  0
LINE
  5
261A
330
18
100
AcDbEntity
  8
KYU-JIS
  6
ByBlock
100
AcDbLine
 10
1050.0
 20
2025.0
 30
0.0
 11
1050.0
 21
1975.0
 31
0.0
  0
CIRCLE
  5
261D
330
18
100
AcDbEntity
  8
KYU-JIS
  6
ByBlock
100
AcDbCircle
 10
1050.0
 20
1966.999969999999
 30
0.0
 40
8.0
  0
ARC
  5
2636
330
18
100
AcDbEntity
  8
KYU-JIS
  6
ByBlock
100
AcDbCircle
 10
614.1666800000002
 20
2125.000001
 30
0.0
 40
60.83331999999999
100
AcDbArc
 50
321.8412170000024
 51
38.15879799999937
  0
CIRCLE
  5
2638
330
18
100
AcDbEntity
  8
KYU-JIS
  6
ByBlock
100
AcDbCircle
 10
650.0
 20
2083.000032
 30
0.0
 40
8.0
  0
LINE
  5
263A
330
18
100
AcDbEntity
  8
KYU-JIS
  6
ByBlock
100
AcDbLine
 10
650.0
 20
2075.000001999999
 30
0.0
 11
650.0
 21
2025.000002
 31
0.0
  0
LINE
  5
263B
330
18
100
AcDbEntity
  8
KYU-JIS
  6
ByBlock
100
AcDbLine
 10
650.0
 20
2225.0
 30
0.0
 11
650.0
 21
2175.0
 31
0.0
  0
CIRCLE
  5
263D
330
18
100
AcDbEntity
  8
KYU-JIS
  6
ByBlock
100
AcDbCircle
 10
650.0
 20
2166.999969999999
 30
0.0
 40
8.0
  0
CIRCLE
  5
2649
330
18
100
AcDbEntity
  8
KYU-JIS
  6
ByBlock
 62
     3
100
AcDbCircle
 10
650.0
 20
1375.000001999999
 30
0.0
 40
8.0
  0
LINE
  5
264A
330
18
100
AcDbEntity
  8
KYU-JIS
  6
ByBlock
 62
     3
100
AcDbLine
 10
650.0
 20
1325.000001
 30
0.0
 11
650.0
 21
1367.000122
 31
0.0
  0
LINE
  5
264C
330
18
100
AcDbEntity
  8
KYU-JIS
  6
ByBlock
 62
     3
100
AcDbLine
 10
650.0
 20
1432.999879
 30
0.0
 11
650.0
 21
1475.0
 31
0.0
  0
CIRCLE
  5
264E
330
18
100
AcDbEntity
  8
KYU-JIS
  6
ByBlock
 62
     3
100
AcDbCircle
 10
650.0
 20
1425.000000999999
 30
0.0
 40
8.0
  0
LINE
  5
2650
330
18
100
AcDbEntity
  8
KYU-JIS
  6
ByBlock
 62
     3
100
AcDbLine
 10
673.9050289999995
 20
1430.809632
 30
0.0
 11
650.0
 21
1382.999879999999
 31
0.0
  0
ARC
  5
2651
330
18
100
AcDbEntity
  8
KYU-JIS
  6
ByBlock
 62
     3
100
AcDbCircle
 10
670.0
 20
1425.000000999999
 30
0.0
 40
7.0
100
AcDbArc
 50
56.09239600000322
 51
250.7774959999988
  0
CIRCLE
  5
265B
330
18
100
AcDbEntity
  8
KYU-JIS
  6
ByBlock
 62
     3
100
AcDbCircle
 10
1450.0
 20
1375.000001999999
 30
0.0
 40
8.0
  0
LINE
  5
265C
330
18
100
AcDbEntity
  8
KYU-JIS
  6
ByBlock
 62
     3
100
AcDbLine
 10
1450.0
 20
1325.000001
 30
0.0
 11
1450.0
 21
1367.000122
 31
0.0
  0
LINE
  5
265E
330
18
100
AcDbEntity
  8
KYU-JIS
  6
ByBlock
 62
     3
100
AcDbLine
 10
1450.0
 20
1432.999879
 30
0.0
 11
1450.0
 21
1475.0
 31
0.0
  0
CIRCLE
  5
2660
330
18
100
AcDbEntity
  8
KYU-JIS
  6
ByBlock
 62
     3
100
AcDbCircle
 10
1450.0
 20
1425.000000999999
 30
0.0
 40
8.0
  0
LINE
  5
2662
330
18
100
AcDbEntity
  8
KYU-JIS
  6
ByBlock
 62
     3
100
AcDbLine
 10
1473.905028999999
 20
1430.809632
 30
0.0
 11
1450.0
 21
1382.999879999999
 31
0.0
  0
ARC
  5
2663
330
18
100
AcDbEntity
  8
KYU-JIS
  6
ByBlock
 62
     3
100
AcDbCircle
 10
1470.0
 20
1425.000000999999
 30
0.0
 40
7.0
100
AcDbArc
 50
56.09239600000322
 51
250.7774960000049
  0
CIRCLE
  5
266D
330
18
100
AcDbEntity
  8
KYU-JIS
  6
ByBlock
 62
     3
100
AcDbCircle
 10
1050.0
 20
1375.000001999999
 30
0.0
 40
8.0
  0
LINE
  5
266E
330
18
100
AcDbEntity
  8
KYU-JIS
  6
ByBlock
 62
     3
100
AcDbLine
 10
1050.0
 20
1325.000001
 30
0.0
 11
1050.0
 21
1367.000122
 31
0.0
  0
LINE
  5
2670
330
18
100
AcDbEntity
  8
KYU-JIS
  6
ByBlock
 62
     3
100
AcDbLine
 10
1050.0
 20
1432.999879
 30
0.0
 11
1050.0
 21
1475.0
 31
0.0
  0
CIRCLE
  5
2672
330
18
100
AcDbEntity
  8
KYU-JIS
  6
ByBlock
 62
     3
100
AcDbCircle
 10
1050.0
 20
1425.000000999999
 30
0.0
 40
8.0
  0
LINE
  5
2674
330
18
100
AcDbEntity
  8
KYU-JIS
  6
ByBlock
 62
     3
100
AcDbLine
 10
1073.905028999999
 20
1430.809632
 30
0.0
 11
1050.0
 21
1382.999879999999
 31
0.0
  0
ARC
  5
2675
330
18
100
AcDbEntity
  8
KYU-JIS
  6
ByBlock
 62
     3
100
AcDbCircle
 10
1070.0
 20
1425.000000999999
 30
0.0
 40
7.0
100
AcDbArc
 50
56.09239600000322
 51
250.7774960000049
  0
CIRCLE
  5
267F
330
18
100
AcDbEntity
  8
KYU-JIS
  6
ByBlock
 62
     3
100
AcDbCircle
 10
1850.0
 20
1375.000001999999
 30
0.0
 40
8.0
  0
LINE
  5
2680
330
18
100
AcDbEntity
  8
KYU-JIS
  6
ByBlock
 62
     3
100
AcDbLine
 10
1850.0
 20
1325.000001
 30
0.0
 11
1850.0
 21
1367.000122
 31
0.0
  0
LINE
  5
2682
330
18
100
AcDbEntity
  8
KYU-JIS
  6
ByBlock
 62
     3
100
AcDbLine
 10
1850.0
 20
1432.999879
 30
0.0
 11
1850.0
 21
1475.0
 31
0.0
  0
CIRCLE
  5
2684
330
18
100
AcDbEntity
  8
KYU-JIS
  6
ByBlock
 62
     3
100
AcDbCircle
 10
1850.0
 20
1425.000000999999
 30
0.0
 40
8.0
  0
LINE
  5
2686
330
18
100
AcDbEntity
  8
KYU-JIS
  6
ByBlock
 62
     3
100
AcDbLine
 10
1873.905028999999
 20
1430.809632
 30
0.0
 11
1850.0
 21
1382.999879999999
 31
0.0
  0
ARC
  5
2687
330
18
100
AcDbEntity
  8
KYU-JIS
  6
ByBlock
 62
     3
100
AcDbCircle
 10
1870.0
 20
1425.000000999999
 30
0.0
 40
7.0
100
AcDbArc
 50
56.09239600000322
 51
250.7774960000049
  0
POINT
  5
2830
330
18
100
AcDbEntity
  8
TEN
  6
Continuous
 62
     4
100
AcDbPoint
 10
3782.0
 20
103.0
 30
0.0
  0
POINT
  5
2831
330
18
100
AcDbEntity
  8
TEN
  6
Continuous
 62
     4
100
AcDbPoint
 10
3781.0
 20
215.0
 30
0.0
  0
POINT
  5
2832
330
18
100
AcDbEntity
  8
TEN
  6
Continuous
 62
     4
100
AcDbPoint
 10
4018.0
 20
80.12500000000001
 30
0.0
  0
POINT
  5
2833
330
18
100
AcDbEntity
  8
TEN
  6
Continuous
 62
     4
100
AcDbPoint
 10
3990.0
 20
124.375
 30
0.0
  0
POINT
  5
2834
330
18
100
AcDbEntity
  8
TEN
  6
Continuous
 62
     4
100
AcDbPoint
 10
1652.2
 20
187.3999999999999
 30
0.0
  0
POINT
  5
2835
330
18
100
AcDbEntity
  8
TEN
  6
Continuous
 62
     4
100
AcDbPoint
 10
1710.0
 20
187.1
 30
0.0
  0
POINT
  5
2836
330
18
100
AcDbEntity
  8
TEN
  6
Continuous
 62
     4
100
AcDbPoint
 10
1767.8
 20
186.8
 30
0.0
  0
LWPOLYLINE
  5
2837
102
{ACAD_REACTORS
330
289A
102
}
330
18
100
AcDbEntity
  8
WAKU
  6
Continuous
 62
     7
100
AcDbPolyline
 90
       70
 70
     1
 43
0.0
 10
1869.39
 20
108.4624190070459
 10
1868.95046664168
 20
107.893481361466
 10
1868.195926382809
 20
107.118483114415
 10
1867.36244213045
 20
106.4822917315619
 10
1866.466236707499
 20
105.997289954516
 10
1865.524753733089
 20
105.672917791188
 10
1864.55631810239
 20
105.5154887767669
 10
1863.579779313389
 20
105.528067087948
 10
1862.61414458282
 20
105.71040790221
 10
1861.6782088923
 20
106.058962163013
 10
1860.79018916545
 20
106.566945658146
 10
1859.967369696139
 20
107.224471066698
 10
1859.2257657294
 20
108.018740404517
 10
1858.57981174287
 20
108.934294122408
 10
1858.04208049616
 20
109.9533120086809
 10
1857.6230383163
 20
111.055960039295
 10
1857.33084138268
 20
112.220776424578
 10
1857.17117697625
 20
113.425089338548
 10
1857.14715278305
 20
114.6454582002219
 10
1857.259236406689
 20
115.858129917856
 10
1857.50524626691
 20
117.039501215859
 10
1857.88039406164
 20
118.1665780457059
 10
1858.37737796575
 20
119.217423138934
 10
1858.98652475288
 20
120.171582991124
 10
1859.695978073699
 20
121.010485966092
 10
1860.49192922631
 20
121.717803771669
 10
1861.35888592692
 20
122.2797692713309
 10
1862.27997384949
 20
122.6854444458539
 10
1863.23726506533
 20
122.9269332894139
 10
1864.21212698983
 20
122.999535496362
 10
1865.18558504451
 20
122.9018379473209
 10
1866.13869197564
 20
122.635742213956
 10
1867.05289664094
 20
122.2064275470369
 10
1867.9104050865
 20
121.622250068216
 10
1868.694526885819
 20
120.894580127628
 10
1869.39
 20
120.0375809929539
 10
1869.39
 20
124.858811196359
 10
1868.15817603983
 20
125.567524273263
 10
1866.85759997358
 20
126.082591372041
 10
1865.51052501831
 20
126.3951995518289
 10
1864.14
 20
126.5
 10
1862.769474981689
 20
126.3951995518289
 10
1861.422400026419
 20
126.082591372041
 10
1860.121823960169
 20
125.567524273263
 10
1858.89
 20
124.858811196359
 10
1857.74800499541
 20
123.968578418568
 10
1856.71537879754
 20
122.912058069535
 10
1855.80978992694
 20
121.7073275053569
 10
1855.04673326026
 20
120.375
 10
1854.439264908629
 20
118.9378720464719
 10
1853.99777882397
 20
117.4205333025059
 10
1853.72982895558
 20
115.8489458546959
 10
1853.64
 20
114.25
 10
1853.72982895558
 20
112.6510541453049
 10
1853.99777882397
 20
111.0794666974939
 10
1854.439264908629
 20
109.5621279535279
 10
1855.04673326026
 20
108.125
 10
1855.80978992694
 20
106.7926724946429
 10
1856.71537879754
 20
105.587941930465
 10
1857.74800499541
 20
104.5314215814319
 10
1858.89
 20
103.6411888036409
 10
1860.121823960169
 20
102.9324757267369
 10
1861.422400026419
 20
102.4174086279589
 10
1862.769474981689
 20
102.104800448171
 10
1864.14
 20
102.0
 10
1865.51052501831
 20
102.104800448171
 10
1866.85759997358
 20
102.4174086279589
 10
1868.15817603983
 20
102.9324757267369
 10
1869.39
 20
103.6411888036409
 10
1869.39
 20
103.6411888036409
  0
LWPOLYLINE
  5
2838
102
{ACAD_REACTORS
330
289B
102
}
330
18
100
AcDbEntity
  8
WAKU
  6
Continuous
 62
     7
100
AcDbPolyline
 90
       46
 70
     0
 43
0.0
 10
1932.25
 20
114.25
 10
1932.19890736089
 20
115.4677646334009
 10
1932.04662390368
 20
116.661826863399
 10
1931.79611365262
 20
117.808945626913
 10
1931.45225250482
 20
118.886793562041
 10
1931.02173332638
 20
119.8743915847569
 10
1930.512935683379
 20
120.7525172229269
 10
1929.93576274322
 20
121.504078759857
 10
1929.30144852064
 20
122.114447905118
 10
1928.62233922047
 20
122.571744517583
 10
1927.911652932749
 20
122.8670678388569
 10
1927.18322235769
 20
122.9946697364169
 10
1926.45122556785
 20
122.9520665844719
 10
1925.7299100481
 20
122.740087604915
 10
1925.03331538457
 20
122.3628587274589
 10
1924.375
 20
121.8277222831139
 10
1923.767777254539
 20
121.145094094059
 10
1923.223466048219
 20
120.328260741516
 10
1922.752660779529
 20
119.393120957559
 10
1922.36452513749
 20
118.357876174377
 10
1922.066613740869
 20
117.2426762540999
 10
1921.864725096149
 20
116.0692272946549
 10
1921.762788736139
 20
114.8603691452609
 10
1921.762788736139
 20
113.6396308547389
 10
1921.864725096149
 20
112.430772705345
 10
1922.066613740869
 20
111.2573237458999
 10
1922.36452513749
 20
110.142123825624
 10
1922.752660779529
 20
109.106879042441
 10
1923.223466048219
 20
108.171739258484
 10
1923.767777254539
 20
107.3549059059409
 10
1924.375
 20
106.6722777168859
 10
1925.03331538457
 20
106.137141272541
 10
1925.7299100481
 20
105.7599123950849
 10
1926.45122556785
 20
105.547933415528
 10
1927.18322235769
 20
105.5053302635829
 10
1927.911652932749
 20
105.632932161143
 10
1928.62233922047
 20
105.9282554824169
 10
1929.30144852064
 20
106.385552094882
 10
1929.93576274322
 20
106.995921240143
 10
1930.512935683379
 20
107.747482777073
 10
1931.02173332638
 20
108.625608415243
 10
1931.45225250482
 20
109.6132064379599
 10
1931.79611365262
 20
110.691054373087
 10
1932.04662390368
 20
111.838173136601
 10
1932.19890736089
 20
113.032235366599
 10
1932.25
 20
114.25
  0
LWPOLYLINE
  5
2839
102
{ACAD_REACTORS
330
289B
102
}
330
18
100
AcDbEntity
  8
WAKU
  6
Continuous
 62
     7
100
AcDbPolyline
 90
       49
 70
     0
 43
0.0
 10
1927.0
 20
126.5
 10
1925.85789581807
 20
126.3951995518289
 10
1924.73533335535
 20
126.082591372041
 10
1923.65151996681
 20
125.567524273263
 10
1922.625
 20
124.858811196359
 10
1921.67333749617
 20
123.968578418568
 10
1920.81281566462
 20
122.912058069535
 10
1920.05815827245
 20
121.7073275053569
 10
1919.42227771689
 20
120.375
 10
1918.91605409053
 20
118.9378720464719
 10
1918.54814901997
 20
117.4205333025059
 10
1918.324857462979
 20
115.8489458546959
 10
1918.25
 20
114.25
 10
1918.324857462979
 20
112.6510541453039
 10
1918.54814901997
 20
111.0794666974939
 10
1918.91605409053
 20
109.5621279535279
 10
1919.42227771689
 20
108.125
 10
1920.05815827245
 20
106.7926724946429
 10
1920.81281566462
 20
105.587941930465
 10
1921.67333749617
 20
104.5314215814319
 10
1922.625
 20
103.6411888036409
 10
1923.65151996681
 20
102.9324757267369
 10
1924.73533335535
 20
102.4174086279589
 10
1925.85789581807
 20
102.104800448171
 10
1927.0
 20
102.0
 10
1928.142104181929
 20
102.104800448171
 10
1929.264666644649
 20
102.4174086279589
 10
1930.34848003319
 20
102.9324757267369
 10
1931.375
 20
103.6411888036409
 10
1932.326662503829
 20
104.5314215814319
 10
1933.18718433538
 20
105.587941930465
 10
1933.94184172755
 20
106.7926724946429
 10
1934.577722283109
 20
108.125
 10
1935.08394590947
 20
109.5621279535279
 10
1935.45185098003
 20
111.0794666974939
 10
1935.67514253702
 20
112.6510541453039
 10
1935.75
 20
114.25
 10
1935.67514253702
 20
115.8489458546959
 10
1935.45185098003
 20
117.4205333025059
 10
1935.08394590947
 20
118.9378720464719
 10
1934.577722283109
 20
120.375
 10
1933.94184172755
 20
121.7073275053569
 10
1933.18718433538
 20
122.912058069535
 10
1932.326662503829
 20
123.968578418568
 10
1931.375
 20
124.858811196359
 10
1930.34848003319
 20
125.567524273263
 10
1929.264666644649
 20
126.082591372041
 10
1928.142104181929
 20
126.3951995518289
 10
1927.0
 20
126.5
  0
LWPOLYLINE
  5
283A
102
{ACAD_REACTORS
330
289B
102
}
330
18
100
AcDbEntity
  8
WAKU
  6
Continuous
 62
     7
100
AcDbPolyline
 90
       11
 70
     0
 43
0.0
 10
1937.5
 20
102.0
 10
1941.0
 20
102.0
 10
1941.0
 20
119.5
 10
1951.5
 20
102.0
 10
1955.0
 20
102.0
 10
1955.0
 20
126.5
 10
1951.5
 20
126.5
 10
1951.5
 20
109.0
 10
1941.0
 20
126.5
 10
1937.5
 20
126.5
 10
1937.5
 20
102.0
  0
LWPOLYLINE
  5
283B
102
{ACAD_REACTORS
330
289B
102
}
330
18
100
AcDbEntity
  8
WAKU
  6
Continuous
 62
     7
100
AcDbPolyline
 90
        5
 70
     0
 43
0.0
 10
1913.0
 20
126.5
 10
1913.0
 20
102.0
 10
1916.5
 20
102.0
 10
1916.5
 20
126.5
 10
1913.0
 20
126.5
  0
LWPOLYLINE
  5
283C
102
{ACAD_REACTORS
330
289B
102
}
330
18
100
AcDbEntity
  8
WAKU
  6
Continuous
 62
     7
100
AcDbPolyline
 90
        7
 70
     0
 43
0.0
 10
1902.5
 20
126.5
 10
1902.5
 20
105.4999999999999
 10
1909.499999999999
 20
105.4999999999999
 10
1909.499999999999
 20
102.0
 10
1899.0
 20
102.0
 10
1899.0
 20
126.5
 10
1902.5
 20
126.5
  0
LWPOLYLINE
  5
283D
102
{ACAD_REACTORS
330
289B
102
}
330
18
100
AcDbEntity
  8
WAKU
  6
Continuous
 62
     7
100
AcDbPolyline
 90
       13
 70
     0
 43
0.0
 10
1888.5
 20
102.0
 10
1874.5
 20
102.0
 10
1874.5
 20
126.5
 10
1888.5
 20
126.5
 10
1888.5
 20
123.0
 10
1878.0
 20
123.0
 10
1878.0
 20
116.0
 10
1888.5
 20
116.0
 10
1888.5
 20
112.5
 10
1878.0
 20
112.5
 10
1878.0
 20
105.4999999999999
 10
1888.5
 20
105.4999999999999
 10
1888.5
 20
102.0
  0
POINT
  5
283E
330
18
100
AcDbEntity
  8
TEN
  6
Continuous
 62
     4
100
AcDbPoint
 10
1652.2
 20
77.30000000000001
 30
0.0
  0
POINT
  5
283F
330
18
100
AcDbEntity
  8
TEN
  6
Continuous
 62
     4
100
AcDbPoint
 10
1710.0
 20
77.0
 30
0.0
  0
POINT
  5
2840
330
18
100
AcDbEntity
  8
TEN
  6
Continuous
 62
     4
100
AcDbPoint
 10
1767.8
 20
76.7
 30
0.0
  0
CIRCLE
  5
2841
330
18
100
AcDbEntity
  8
WAKU
  6
Continuous
 62
     2
100
AcDbCircle
 10
1740.0
 20
69.5
 30
0.0
 40
3.0
  0
CIRCLE
  5
2842
330
18
100
AcDbEntity
  8
WAKU
  6
Continuous
 62
     2
100
AcDbCircle
 10
1680.0
 20
69.5
 30
0.0
 40
3.0
  0
POINT
  5
2843
330
18
100
AcDbEntity
  8
TEN
  6
Continuous
 62
     4
100
AcDbPoint
 10
3459.0
 20
104.0
 30
0.0
  0
POINT
  5
2844
330
18
100
AcDbEntity
  8
TEN
  6
Continuous
 62
     4
100
AcDbPoint
 10
1510.0
 20
83.0
 30
0.0
  0
POINT
  5
2845
330
18
100
AcDbEntity
  8
TEN
  6
Continuous
 62
     4
100
AcDbPoint
 10
1515.0
 20
194.0
 30
0.0
  0
POINT
  5
2846
330
18
100
AcDbEntity
  8
TEN
  6
Continuous
 62
     4
100
AcDbPoint
 10
1738.0
 20
243.0
 30
0.0
  0
POINT
  5
2847
330
18
100
AcDbEntity
  8
TEN
  6
Continuous
 62
     4
100
AcDbPoint
 10
1734.0
 20
131.0
 30
0.0
  0
POINT
  5
2848
330
18
100
AcDbEntity
  8
TEN
  6
Continuous
 62
     4
100
AcDbPoint
 10
2839.0
 20
99.0
 30
0.0
  0
POINT
  5
2849
330
18
100
AcDbEntity
  8
TEN
  6
Continuous
 62
     4
100
AcDbPoint
 10
3074.0
 20
211.0
 30
0.0
  0
POINT
  5
284A
330
18
100
AcDbEntity
  8
TEN
  6
Continuous
 62
     4
100
AcDbPoint
 10
3220.0
 20
103.0
 30
0.0
  0
POINT
  5
284B
330
18
100
AcDbEntity
  8
TEN
  6
Continuous
 62
     4
100
AcDbPoint
 10
3648.0
 20
103.0
 30
0.0
  0
POINT
  5
284C
330
18
100
AcDbEntity
  8
TEN
  6
Continuous
 62
     4
100
AcDbPoint
 10
3647.0
 20
215.0
 30
0.0
  0
TEXT
  5
284D
330
18
100
AcDbEntity
  8
WAKU
  6
Continuous
 62
     1
100
AcDbText
 10
3859.0
 20
2832.0
 30
0.0
 40
25.0
  1
８
 41
0.84
  7
EXCADSTD
100
AcDbText
  0
TEXT
  5
284E
330
18
100
AcDbEntity
  8
WAKU
  6
Continuous
 62
     1
100
AcDbText
 10
3392.0
 20
2837.0
 30
0.0
 40
25.0
  1
７
 41
0.84
  7
EXCADSTD
100
AcDbText
  0
TEXT
  5
284F
330
18
100
AcDbEntity
  8
WAKU
  6
Continuous
 62
     1
100
AcDbText
 10
2887.0
 20
2837.0
 30
0.0
 40
25.0
  1
６
 41
0.84
  7
EXCADSTD
100
AcDbText
  0
TEXT
  5
2850
330
18
100
AcDbEntity
  8
WAKU
  6
Continuous
 62
     1
100
AcDbText
 10
2376.0
 20
2837.0
 30
0.0
 40
25.0
  1
５
 41
0.84
  7
EXCADSTD
100
AcDbText
  0
TEXT
  5
2851
330
18
100
AcDbEntity
  8
WAKU
  6
Continuous
 62
     1
100
AcDbText
 10
1890.0
 20
2837.0
 30
0.0
 40
25.0
  1
４
 41
0.84
  7
EXCADSTD
100
AcDbText
  0
TEXT
  5
2852
330
18
100
AcDbEntity
  8
WAKU
  6
Continuous
 62
     1
100
AcDbText
 10
1375.0
 20
2837.0
 30
0.0
 40
25.0
  1
３
 41
0.84
  7
EXCADSTD
100
AcDbText
  0
TEXT
  5
2853
330
18
100
AcDbEntity
  8
WAKU
  6
Continuous
 62
     1
100
AcDbText
 10
879.0
 20
2837.0
 30
0.0
 40
25.0
  1
２
 41
0.84
  7
EXCADSTD
100
AcDbText
  0
TEXT
  5
2854
330
18
100
AcDbEntity
  8
WAKU
  6
Continuous
 62
     1
100
AcDbText
 10
378.0
 20
2837.0
 30
0.0
 40
25.0
  1
１
 41
0.84
  7
EXCADSTD
100
AcDbText
  0
TEXT
  5
2855
330
18
100
AcDbEntity
  8
WAKU
  6
Continuous
 62
     1
100
AcDbText
 10
123.0
 20
520.0
 30
0.0
 40
25.0
  1
Ｅ
 41
0.84
  7
EXCADSTD
100
AcDbText
  0
TEXT
  5
2856
330
18
100
AcDbEntity
  8
WAKU
  6
Continuous
 62
     1
100
AcDbText
 10
118.0
 20
1025.0
 30
0.0
 40
25.0
  1
Ｄ
 41
0.84
  7
EXCADSTD
100
AcDbText
  0
TEXT
  5
2857
330
18
100
AcDbEntity
  8
WAKU
  6
Continuous
 62
     1
100
AcDbText
 10
123.0
 20
1531.0
 30
0.0
 40
25.0
  1
Ｃ
 41
0.84
  7
EXCADSTD
100
AcDbText
  0
TEXT
  5
2858
330
18
100
AcDbEntity
  8
WAKU
  6
Continuous
 62
     1
100
AcDbText
 10
118.0
 20
2027.0
 30
0.0
 40
25.0
  1
Ｂ
 41
0.84
  7
EXCADSTD
100
AcDbText
  0
TEXT
  5
2859
330
18
100
AcDbEntity
  8
WAKU
  6
Continuous
 62
     1
100
AcDbText
 10
118.0
 20
2527.0
 30
0.0
 40
25.0
  1
Ａ
 41
0.84
  7
EXCADSTD
100
AcDbText
  0
TEXT
  5
285A
330
18
100
AcDbEntity
  8
WAKU
  6
Continuous
 62
     2
100
AcDbText
 10
1055.0
 20
170.0
 30
0.0
 40
30.0
  1
日塗工・マンセル
 41
0.84
  7
EXCADSTD
100
AcDbText
  0
TEXT
  5
285B
330
18
100
AcDbEntity
  8
WAKU
  6
Continuous
 62
     2
100
AcDbText
 10
1056.0
 20
117.0
 30
0.0
 40
30.0
  1
外面
 41
0.84
  7
EXCADSTD
100
AcDbText
  0
LINE
  5
285C
330
18
100
AcDbEntity
  8
WAKU
  6
DOT
 62
     3
100
AcDbLine
 10
210.0
 20
110.0
 30
0.0
 11
1401.0
 21
110.0
 31
0.0
  0
LINE
  5
285D
330
18
100
AcDbEntity
  8
WAKU
  6
DOT
 62
     3
100
AcDbLine
 10
210.0
 20
210.0
 30
0.0
 11
1050.0
 21
210.0
 31
0.0
  0
LINE
  5
285E
330
18
100
AcDbEntity
  8
WAKU
  6
Continuous
 62
     1
100
AcDbLine
 10
150.0
 20
320.0
 30
0.0
 11
170.0
 21
320.0
 31
0.0
  0
LINE
  5
285F
330
18
100
AcDbEntity
  8
WAKU
  6
Continuous
 62
     1
100
AcDbLine
 10
150.0
 20
820.0
 30
0.0
 11
170.0
 21
820.0
 31
0.0
  0
LINE
  5
2860
330
18
100
AcDbEntity
  8
WAKU
  6
Continuous
 62
     1
100
AcDbLine
 10
150.0
 20
1320.0
 30
0.0
 11
170.0
 21
1320.0
 31
0.0
  0
LINE
  5
2861
330
18
100
AcDbEntity
  8
WAKU
  6
Continuous
 62
     1
100
AcDbLine
 10
150.0
 20
1820.0
 30
0.0
 11
170.0
 21
1820.0
 31
0.0
  0
LINE
  5
2862
330
18
100
AcDbEntity
  8
WAKU
  6
Continuous
 62
     1
100
AcDbLine
 10
150.0
 20
2320.0
 30
0.0
 11
170.0
 21
2320.0
 31
0.0
  0
LINE
  5
2863
330
18
100
AcDbEntity
  8
WAKU
  6
Continuous
 62
     1
100
AcDbLine
 10
3650.0
 20
2820.0
 30
0.0
 11
3650.0
 21
2800.0
 31
0.0
  0
LINE
  5
2864
330
18
100
AcDbEntity
  8
WAKU
  6
Continuous
 62
     1
100
AcDbLine
 10
3150.0
 20
2820.0
 30
0.0
 11
3150.0
 21
2800.0
 31
0.0
  0
LINE
  5
2865
330
18
100
AcDbEntity
  8
WAKU
  6
Continuous
 62
     1
100
AcDbLine
 10
2650.0
 20
2820.0
 30
0.0
 11
2650.0
 21
2800.0
 31
0.0
  0
LINE
  5
2866
330
18
100
AcDbEntity
  8
WAKU
  6
Continuous
 62
     1
100
AcDbLine
 10
2150.0
 20
2820.0
 30
0.0
 11
2150.0
 21
2800.0
 31
0.0
  0
LINE
  5
2867
330
18
100
AcDbEntity
  8
WAKU
  6
Continuous
 62
     1
100
AcDbLine
 10
1650.0
 20
2820.0
 30
0.0
 11
1650.0
 21
2800.0
 31
0.0
  0
LINE
  5
2868
330
18
100
AcDbEntity
  8
WAKU
  6
Continuous
 62
     1
100
AcDbLine
 10
1150.0
 20
2820.0
 30
0.0
 11
1150.0
 21
2800.0
 31
0.0
  0
LINE
  5
2869
330
18
100
AcDbEntity
  8
WAKU
  6
Continuous
 62
     1
100
AcDbLine
 10
650.0
 20
2820.0
 30
0.0
 11
650.0
 21
2800.0
 31
0.0
  0
POINT
  5
286A
330
18
100
AcDbEntity
  8
TEN
  6
Continuous
 62
     4
100
AcDbPoint
 10
1820.172203531769
 20
221.000000000001
 30
0.0
  0
TEXT
  5
286B
330
18
100
AcDbEntity
  8
WAKU
  6
Continuous
 62
     2
100
AcDbText
 10
3084.0
 20
89.0
 30
0.0
 40
30.0
  1
記号
 41
0.98
  7
EXCADSTD
100
AcDbText
  0
LINE
  5
286C
330
18
100
AcDbEntity
  8
WAKU
  6
Continuous
 62
     3
100
AcDbLine
 10
3074.999968
 20
51.0
 30
0.0
 11
3074.999968
 21
160.4999999999999
 31
0.0
  0
LINE
  5
286D
330
18
100
AcDbEntity
  8
WAKU
  6
Continuous
 62
     5
100
AcDbLine
 10
1918.89537202802
 20
179.7759999999999
 30
0.0
 11
1920.05588952606
 21
180.936517498042
 31
0.0
  0
CIRCLE
  5
286E
330
18
100
AcDbEntity
  8
WAKU
  6
Continuous
 62
     2
100
AcDbCircle
 10
1740.0
 20
179.4999999999999
 30
0.0
 40
3.0
  0
CIRCLE
  5
286F
330
18
100
AcDbEntity
  8
WAKU
  6
Continuous
 62
     2
100
AcDbCircle
 10
1680.0
 20
179.4999999999999
 30
0.0
 40
3.0
  0
TEXT
  5
2870
330
18
100
AcDbEntity
  8
WAKU
  6
Continuous
 62
     2
100
AcDbText
 10
177.991667
 20
249.0
 30
0.0
 40
31.5
  1
変更記事
 41
0.8
  7
EXCADVERT
100
AcDbText
  0
LINE
  5
2872
330
18
100
AcDbEntity
  8
WAKU
  6
Continuous
 62
     3
100
AcDbLine
 10
2549.999968
 20
160.4999999999999
 30
0.0
 11
4050.0
 21
160.4999999999999
 31
0.0
  0
LINE
  5
2873
330
18
100
AcDbEntity
  8
WAKU
  6
DOT
 62
     3
100
AcDbLine
 10
1671.0
 20
213.75
 30
0.0
 11
1799.999975
 21
213.75
 31
0.0
  0
LINE
  5
2874
330
18
100
AcDbEntity
  8
WAKU
  6
DOT
 62
     3
100
AcDbLine
 10
1671.0
 20
103.75
 30
0.0
 11
1799.999975
 21
103.75
 31
0.0
  0
LINE
  5
2875
330
18
100
AcDbEntity
  8
WAKU
  6
Continuous
 62
     3
100
AcDbLine
 10
1401.0
 20
160.0
 30
0.0
 11
1799.999975
 21
160.0
 31
0.0
  0
LINE
  5
2876
330
18
100
AcDbEntity
  8
WAKU
  6
DOT
 62
     3
100
AcDbLine
 10
210.0
 20
50.0
 30
0.0
 11
210.0
 21
270.0
 31
0.0
  0
LINE
  5
2877
330
18
100
AcDbEntity
  8
WAKU
  6
DOT
 62
     3
100
AcDbLine
 10
210.0
 20
160.0
 30
0.0
 11
1401.0
 21
160.0
 31
0.0
  0
LINE
  5
2878
330
18
100
AcDbEntity
  8
WAKU
  6
Continuous
 62
    11
100
AcDbLine
 10
150.0
 20
270.0
 30
0.0
 11
4050.0
 21
270.0
 31
0.0
  0
LINE
  5
2879
330
18
100
AcDbEntity
  8
WAKU
  6
Continuous
 62
     3
100
AcDbLine
 10
1050.0
 20
270.0
 30
0.0
 11
1050.0
 21
50.0
 31
0.0
  0
LINE
  5
287A
330
18
100
AcDbEntity
  8
WAKU
  6
Continuous
 62
     3
100
AcDbLine
 10
1400.0
 20
270.0
 30
0.0
 11
1400.0
 21
50.0
 31
0.0
  0
LINE
  5
287B
330
18
100
AcDbEntity
  8
WAKU
  6
Continuous
 62
     3
100
AcDbLine
 10
1600.0
 20
270.0
 30
0.0
 11
1600.0
 21
50.0
 31
0.0
  0
LINE
  5
287C
330
18
100
AcDbEntity
  8
WAKU
  6
Continuous
 62
     3
100
AcDbLine
 10
1799.999975
 20
270.0
 30
0.0
 11
1799.999975
 21
49.90000000000009
 31
0.0
  0
LINE
  5
287D
330
18
100
AcDbEntity
  8
WAKU
  6
Continuous
 62
     3
100
AcDbLine
 10
2549.999968
 20
270.0
 30
0.0
 11
2549.999968
 21
50.0
 31
0.0
  0
TEXT
  5
287E
330
18
100
AcDbEntity
  8
WAKU
  6
Continuous
 62
     2
100
AcDbText
 10
3310.0
 20
91.0
 30
0.0
 40
30.0
  1
製作数
 41
0.933333333333333
  7
EXCADSTD
100
AcDbText
  0
LINE
  5
287F
330
18
100
AcDbEntity
  8
WAKU
  6
Continuous
 62
     3
100
AcDbLine
 10
3550.0
 20
160.4999999999999
 30
0.0
 11
3550.0
 21
50.0
 31
0.0
  0
LINE
  5
2880
330
18
100
AcDbEntity
  8
WAKU
  6
Continuous
 62
     3
100
AcDbLine
 10
3300.0
 20
160.4999999999999
 30
0.0
 11
3300.0
 21
51.0
 31
0.0
  0
LINE
  5
2881
330
18
100
AcDbEntity
  8
WAKU
  6
Continuous
 62
     3
100
AcDbLine
 10
3550.0
 20
270.0
 30
0.0
 11
3550.0
 21
160.4999999999999
 31
0.0
  0
TEXT
  5
2882
330
18
100
AcDbEntity
  8
WAKU
  6
Continuous
 62
    11
100
AcDbText
 10
2002.0
 20
123.0
 30
0.0
 40
50.0
  1
エ－スライオン株式会社
 41
0.7636363636363641
  7
EXCADSTD
100
AcDbText
  0
TEXT
  5
2883
330
18
100
AcDbEntity
  8
WAKU
  6
Continuous
 62
     2
100
AcDbText
 10
3559.0
 20
90.0
 30
0.0
 40
30.0
  1
図番
 41
0.98
  7
EXCADSTD
100
AcDbText
  0
TEXT
  5
2884
330
18
100
AcDbEntity
  8
WAKU
  6
Continuous
 62
     2
100
AcDbText
 10
3504.0
 20
89.0
 30
0.0
 40
30.0
  1
面
 41
1.12
  7
EXCADSTD
100
AcDbText
  0
TEXT
  5
2885
330
18
100
AcDbEntity
  8
WAKU
  6
Continuous
 62
     2
100
AcDbText
 10
3553.000031999999
 20
197.0000000000009
 30
0.0
 40
30.0
  1
工番
 41
0.98
  7
EXCADSTD
100
AcDbText
  0
TEXT
  5
2886
330
18
100
AcDbEntity
  8
WAKU
  6
Continuous
 62
     2
100
AcDbText
 10
2563.0
 20
91.0
 30
0.0
 40
30.0
  1
品名
 41
0.98
  7
EXCADSTD
100
AcDbText
  0
TEXT
  5
2887
330
18
100
AcDbEntity
  8
WAKU
  6
Continuous
 62
     2
100
AcDbText
 10
3500.000031999999
 20
197.0000000000009
 30
0.0
 40
30.0
  1
殿
 41
1.12
  7
EXCADSTD
100
AcDbText
  0
TEXT
  5
2888
330
18
100
AcDbEntity
  8
WAKU
  6
Continuous
 62
     2
100
AcDbText
 10
2560.0
 20
200.0
 30
0.0
 40
30.0
  1
納入先
 41
0.933333333333333
  7
EXCADSTD
100
AcDbText
  0
TEXT
  5
2889
330
18
100
AcDbEntity
  8
WAKU
  6
Continuous
 62
     2
100
AcDbText
 10
1607.0
 20
117.5
 30
0.0
 40
30.0
  1
検図
 41
0.84
  7
EXCADSTD
100
AcDbText
  0
TEXT
  5
288A
330
18
100
AcDbEntity
  8
WAKU
  6
Continuous
 62
     2
100
AcDbText
 10
1607.0
 20
231.0
 30
0.0
 40
30.0
  1
製図
 41
0.84
  7
EXCADSTD
100
AcDbText
  0
TEXT
  5
288B
330
18
100
AcDbEntity
  8
WAKU
  6
Continuous
 62
     2
100
AcDbText
 10
1406.0
 20
117.5
 30
0.0
 40
30.0
  1
縮尺
 41
0.84
  7
EXCADSTD
100
AcDbText
  0
TEXT
  5
288C
330
18
100
AcDbEntity
  8
WAKU
  6
Continuous
 62
     2
100
AcDbText
 10
1408.0
 20
231.0
 30
0.0
 40
30.0
  1
形式
 41
0.84
  7
EXCADSTD
100
AcDbText
  0
TEXT
  5
288D
330
18
100
AcDbEntity
  8
WAKU
  6
Continuous
 62
     2
100
AcDbText
 10
1057.0
 20
61.0
 30
0.0
 40
30.0
  1
内面
 41
0.84
  7
EXCADSTD
100
AcDbText
  0
TEXT
  5
288E
330
18
100
AcDbEntity
  8
WAKU
  6
Continuous
 62
     2
100
AcDbText
 10
1055.0
 20
222.0
 30
0.0
 40
30.0
  1
塗装色（艶　　　　　　）
 41
0.84
  7
EXCADSTD
100
AcDbText
  0
LWPOLYLINE
  5
288F
330
18
100
AcDbEntity
  8
WAKU
  6
Continuous
 62
    11
100
AcDbPolyline
 90
        5
 70
     0
 43
0.0
 10
150.0
 20
50.0
 10
4050.0
 20
50.0
 10
4050.0
 20
2820.0
 10
150.0
 20
2820.0
 10
150.0
 20
50.0
  0
LWPOLYLINE
  5
2891
102
{ACAD_REACTORS
330
2892
102
}
330
18
100
AcDbEntity
  8
WAKU
  6
Continuous
 62
     1
100
AcDbPolyline
 90
        6
 70
     1
 43
0.0
 10
1876.16089539752
 20
150.592
 10
1904.538815828732
 20
150.592
 10
1896.114120700713
 20
136.0
 10
1849.999999999999
 20
136.0
 10
1873.057060350359
 20
175.9359999999999
 10
1890.793260619863
 20
175.9359999999999
  0
HATCH
  5
2892
330
18
100
AcDbEntity
  8
WAKU-MOJI
  6
Continuous
100
AcDbHatch
 10
0.0
 20
0.0
 30
0.0
210
0.0
220
0.0
230
1.0
  2
SOLID
 70
     1
 71
     1
 91
        1
 92
        1
 93
        6
 72
     1
 10
1876.16089539752
 20
150.592
 11
1904.538815828732
 21
150.592
 72
     1
 10
1904.538815828732
 20
150.592
 11
1896.114120700713
 21
136.0
 72
     1
 10
1896.114120700713
 20
136.0
 11
1849.999999999999
 21
136.0
 72
     1
 10
1849.999999999999
 20
136.0
 11
1873.057060350359
 21
175.9359999999999
 72
     1
 10
1873.057060350359
 20
175.9359999999999
 11
1890.793260619863
 21
175.9359999999999
 72
     1
 10
1890.793260619863
 20
175.9359999999999
 11
1876.16089539752
 21
150.592
 97
        1
330
2891
 75
     0
 76
     1
 98
        1
 10
0.0
 20
0.0
  0
LWPOLYLINE
  5
2893
102
{ACAD_REACTORS
330
2898
102
}
330
18
100
AcDbEntity
  8
WAKU
  6
Continuous
 62
     5
100
AcDbPolyline
 90
        4
 70
     1
 43
0.0
 10
1885.69691908368
 20
194.368
 10
1912.301219487945
 20
194.368
 10
1907.867169420561
 20
202.048
 10
1881.262869016305
 20
202.048
  0
LWPOLYLINE
  5
2894
102
{ACAD_REACTORS
330
2898
102
}
330
18
100
AcDbEntity
  8
WAKU
  6
Continuous
 62
     5
100
AcDbPolyline
 90
        4
 70
     1
 43
0.0
 10
1894.106923175614
 20
179.801445620907
 10
1920.711223579879
 20
179.801445620907
 10
1916.277173512495
 20
187.4814456209069
 10
1889.67287310824
 20
187.4814456209069
  0
LWPOLYLINE
  5
2895
102
{ACAD_REACTORS
330
2898
102
}
330
18
100
AcDbEntity
  8
WAKU
  6
Continuous
 62
     5
100
AcDbPolyline
 90
        4
 70
     1
 43
0.0
 10
1902.581517629864
 20
165.224799936228
 10
1929.185818034129
 20
165.224799936228
 10
1924.751767966745
 20
172.904799936228
 10
1898.14746756249
 20
172.904799936228
  0
LWPOLYLINE
  5
2896
102
{ACAD_REACTORS
330
2898
102
}
330
18
100
AcDbEntity
  8
WAKU
  6
Continuous
 62
     5
100
AcDbPolyline
 90
        4
 70
     1
 43
0.0
 10
1919.480960321884
 20
135.9541065740469
 10
1946.085260726149
 20
135.9541065740469
 10
1941.651210658765
 20
143.6341065740469
 10
1915.04691025451
 20
143.6341065740469
  0
LWPOLYLINE
  5
2897
102
{ACAD_REACTORS
330
2898
102
}
330
18
100
AcDbEntity
  8
WAKU
  6
Continuous
 62
     5
100
AcDbPolyline
 90
        4
 70
     1
 43
0.0
 10
1910.954438975874
 20
150.722474757159
 10
1937.558739380139
 20
150.722474757159
 10
1933.124689312755
 20
158.402474757159
 10
1906.5203889085
 20
158.402474757159
  0
HATCH
  5
2898
330
18
100
AcDbEntity
  8
WAKU-MOJI
  6
Continuous
100
AcDbHatch
 10
0.0
 20
0.0
 30
0.0
210
0.0
220
0.0
230
1.0
  2
SOLID
 70
     1
 71
     1
 91
        5
 92
        1
 93
        4
 72
     1
 10
1919.480960321884
 20
135.9541065740469
 11
1946.085260726149
 21
135.9541065740469
 72
     1
 10
1946.085260726149
 20
135.9541065740469
 11
1941.651210658765
 21
143.6341065740469
 72
     1
 10
1941.651210658765
 20
143.6341065740469
 11
1915.04691025451
 21
143.6341065740469
 72
     1
 10
1915.04691025451
 20
143.6341065740469
 11
1919.480960321884
 21
135.9541065740469
 97
        1
330
2896
 92
        1
 93
        4
 72
     1
 10
1910.954438975874
 20
150.722474757159
 11
1937.558739380139
 21
150.722474757159
 72
     1
 10
1937.558739380139
 20
150.722474757159
 11
1933.124689312755
 21
158.402474757159
 72
     1
 10
1933.124689312755
 20
158.402474757159
 11
1906.5203889085
 21
158.402474757159
 72
     1
 10
1906.5203889085
 20
158.402474757159
 11
1910.954438975874
 21
150.722474757159
 97
        1
330
2897
 92
        1
 93
        4
 72
     1
 10
1902.581517629864
 20
165.224799936228
 11
1929.185818034129
 21
165.224799936228
 72
     1
 10
1929.185818034129
 20
165.224799936228
 11
1924.751767966745
 21
172.904799936228
 72
     1
 10
1924.751767966745
 20
172.904799936228
 11
1898.14746756249
 21
172.904799936228
 72
     1
 10
1898.14746756249
 20
172.904799936228
 11
1902.581517629864
 21
165.224799936228
 97
        1
330
2895
 92
        1
 93
        4
 72
     1
 10
1894.106923175614
 20
179.801445620907
 11
1920.711223579879
 21
179.801445620907
 72
     1
 10
1920.711223579879
 20
179.801445620907
 11
1916.277173512495
 21
187.4814456209069
 72
     1
 10
1916.277173512495
 20
187.4814456209069
 11
1889.67287310824
 21
187.4814456209069
 72
     1
 10
1889.67287310824
 20
187.4814456209069
 11
1894.106923175614
 21
179.801445620907
 97
        1
330
2894
 92
        1
 93
        4
 72
     1
 10
1885.69691908368
 20
194.368
 11
1912.301219487945
 21
194.368
 72
     1
 10
1912.301219487945
 20
194.368
 11
1907.867169420561
 21
202.048
 72
     1
 10
1907.867169420561
 20
202.048
 11
1881.262869016305
 21
202.048
 72
     1
 10
1881.262869016305
 20
202.048
 11
1885.69691908368
 21
194.368
 97
        1
330
2893
 75
     0
 76
     1
 98
        1
 10
0.0
 20
0.0
  0
LWPOLYLINE
  5
2899
102
{ACAD_REACTORS
330
289A
102
}
330
18
100
AcDbEntity
  8
WAKU
  6
Continuous
 62
     7
100
AcDbPolyline
 90
        7
 70
     1
 43
0.0
 10
1843.0
 20
126.5
 10
1846.499999999999
 20
126.5
 10
1853.5
 20
102.0
 10
1850.0
 20
102.0
 10
1844.75
 20
120.375
 10
1839.5
 20
102.0
 10
1836.0
 20
102.0
  0
HATCH
  5
289A
330
18
100
AcDbEntity
  8
WAKU-MOJI
  6
Continuous
100
AcDbHatch
 10
0.0
 20
0.0
 30
0.0
210
0.0
220
0.0
230
1.0
  2
SOLID
 70
     1
 71
     1
 91
        2
 92
        1
 93
       69
 72
     1
 10
1869.39
 20
108.4624190070459
 11
1868.95046664168
 21
107.893481361466
 72
     1
 10
1868.95046664168
 20
107.893481361466
 11
1868.195926382809
 21
107.118483114415
 72
     1
 10
1868.195926382809
 20
107.118483114415
 11
1867.36244213045
 21
106.4822917315619
 72
     1
 10
1867.36244213045
 20
106.4822917315619
 11
1866.466236707499
 21
105.997289954516
 72
     1
 10
1866.466236707499
 20
105.997289954516
 11
1865.524753733089
 21
105.672917791188
 72
     1
 10
1865.524753733089
 20
105.672917791188
 11
1864.55631810239
 21
105.5154887767669
 72
     1
 10
1864.55631810239
 20
105.5154887767669
 11
1863.579779313389
 21
105.528067087948
 72
     1
 10
1863.579779313389
 20
105.528067087948
 11
1862.61414458282
 21
105.71040790221
 72
     1
 10
1862.61414458282
 20
105.71040790221
 11
1861.6782088923
 21
106.058962163013
 72
     1
 10
1861.6782088923
 20
106.058962163013
 11
1860.79018916545
 21
106.566945658146
 72
     1
 10
1860.79018916545
 20
106.566945658146
 11
1859.967369696139
 21
107.224471066698
 72
     1
 10
1859.967369696139
 20
107.224471066698
 11
1859.2257657294
 21
108.018740404517
 72
     1
 10
1859.2257657294
 20
108.018740404517
 11
1858.57981174287
 21
108.934294122408
 72
     1
 10
1858.57981174287
 20
108.934294122408
 11
1858.04208049616
 21
109.9533120086809
 72
     1
 10
1858.04208049616
 20
109.9533120086809
 11
1857.6230383163
 21
111.055960039295
 72
     1
 10
1857.6230383163
 20
111.055960039295
 11
1857.33084138268
 21
112.220776424578
 72
     1
 10
1857.33084138268
 20
112.220776424578
 11
1857.17117697625
 21
113.425089338548
 72
     1
 10
1857.17117697625
 20
113.425089338548
 11
1857.14715278305
 21
114.6454582002219
 72
     1
 10
1857.14715278305
 20
114.6454582002219
 11
1857.259236406689
 21
115.858129917856
 72
     1
 10
1857.259236406689
 20
115.858129917856
 11
1857.50524626691
 21
117.039501215859
 72
     1
 10
1857.50524626691
 20
117.039501215859
 11
1857.88039406164
 21
118.1665780457059
 72
     1
 10
1857.88039406164
 20
118.1665780457059
 11
1858.37737796575
 21
119.217423138934
 72
     1
 10
1858.37737796575
 20
119.217423138934
 11
1858.98652475288
 21
120.171582991124
 72
     1
 10
1858.98652475288
 20
120.171582991124
 11
1859.695978073699
 21
121.010485966092
 72
     1
 10
1859.695978073699
 20
121.010485966092
 11
1860.49192922631
 21
121.717803771669
 72
     1
 10
1860.49192922631
 20
121.717803771669
 11
1861.35888592692
 21
122.2797692713309
 72
     1
 10
1861.35888592692
 20
122.2797692713309
 11
1862.27997384949
 21
122.6854444458539
 72
     1
 10
1862.27997384949
 20
122.6854444458539
 11
1863.23726506533
 21
122.9269332894139
 72
     1
 10
1863.23726506533
 20
122.9269332894139
 11
1864.21212698983
 21
122.999535496362
 72
     1
 10
1864.21212698983
 20
122.999535496362
 11
1865.18558504451
 21
122.9018379473209
 72
     1
 10
1865.18558504451
 20
122.9018379473209
 11
1866.13869197564
 21
122.635742213956
 72
     1
 10
1866.13869197564
 20
122.635742213956
 11
1867.05289664094
 21
122.2064275470369
 72
     1
 10
1867.05289664094
 20
122.2064275470369
 11
1867.9104050865
 21
121.622250068216
 72
     1
 10
1867.9104050865
 20
121.622250068216
 11
1868.694526885819
 21
120.894580127628
 72
     1
 10
1868.694526885819
 20
120.894580127628
 11
1869.39
 21
120.0375809929539
 72
     1
 10
1869.39
 20
120.0375809929539
 11
1869.39
 21
124.858811196359
 72
     1
 10
1869.39
 20
124.858811196359
 11
1868.15817603983
 21
125.567524273263
 72
     1
 10
1868.15817603983
 20
125.567524273263
 11
1866.85759997358
 21
126.082591372041
 72
     1
 10
1866.85759997358
 20
126.082591372041
 11
1865.51052501831
 21
126.3951995518289
 72
     1
 10
1865.51052501831
 20
126.3951995518289
 11
1864.14
 21
126.5
 72
     1
 10
1864.14
 20
126.5
 11
1862.769474981689
 21
126.3951995518289
 72
     1
 10
1862.769474981689
 20
126.3951995518289
 11
1861.422400026419
 21
126.082591372041
 72
     1
 10
1861.422400026419
 20
126.082591372041
 11
1860.121823960169
 21
125.567524273263
 72
     1
 10
1860.121823960169
 20
125.567524273263
 11
1858.89
 21
124.858811196359
 72
     1
 10
1858.89
 20
124.858811196359
 11
1857.74800499541
 21
123.968578418568
 72
     1
 10
1857.74800499541
 20
123.968578418568
 11
1856.71537879754
 21
122.912058069535
 72
     1
 10
1856.71537879754
 20
122.912058069535
 11
1855.80978992694
 21
121.7073275053569
 72
     1
 10
1855.80978992694
 20
121.7073275053569
 11
1855.04673326026
 21
120.375
 72
     1
 10
1855.04673326026
 20
120.375
 11
1854.439264908629
 21
118.9378720464719
 72
     1
 10
1854.439264908629
 20
118.9378720464719
 11
1853.99777882397
 21
117.4205333025059
 72
     1
 10
1853.99777882397
 20
117.4205333025059
 11
1853.72982895558
 21
115.8489458546959
 72
     1
 10
1853.72982895558
 20
115.8489458546959
 11
1853.64
 21
114.25
 72
     1
 10
1853.64
 20
114.25
 11
1853.72982895558
 21
112.6510541453049
 72
     1
 10
1853.72982895558
 20
112.6510541453049
 11
1853.99777882397
 21
111.0794666974939
 72
     1
 10
1853.99777882397
 20
111.0794666974939
 11
1854.439264908629
 21
109.5621279535279
 72
     1
 10
1854.439264908629
 20
109.5621279535279
 11
1855.04673326026
 21
108.125
 72
     1
 10
1855.04673326026
 20
108.125
 11
1855.80978992694
 21
106.7926724946429
 72
     1
 10
1855.80978992694
 20
106.7926724946429
 11
1856.71537879754
 21
105.587941930465
 72
     1
 10
1856.71537879754
 20
105.587941930465
 11
1857.74800499541
 21
104.5314215814319
 72
     1
 10
1857.74800499541
 20
104.5314215814319
 11
1858.89
 21
103.6411888036409
 72
     1
 10
1858.89
 20
103.6411888036409
 11
1860.121823960169
 21
102.9324757267369
 72
     1
 10
1860.121823960169
 20
102.9324757267369
 11
1861.422400026419
 21
102.4174086279589
 72
     1
 10
1861.422400026419
 20
102.4174086279589
 11
1862.769474981689
 21
102.104800448171
 72
     1
 10
1862.769474981689
 20
102.104800448171
 11
1864.14
 21
102.0
 72
     1
 10
1864.14
 20
102.0
 11
1865.51052501831
 21
102.104800448171
 72
     1
 10
1865.51052501831
 20
102.104800448171
 11
1866.85759997358
 21
102.4174086279589
 72
     1
 10
1866.85759997358
 20
102.4174086279589
 11
1868.15817603983
 21
102.9324757267369
 72
     1
 10
1868.15817603983
 20
102.9324757267369
 11
1869.39
 21
103.6411888036409
 72
     1
 10
1869.39
 20
103.6411888036409
 11
1869.39
 21
108.4624190070459
 97
        1
330
2837
 92
        1
 93
        7
 72
     1
 10
1843.0
 20
126.5
 11
1846.499999999999
 21
126.5
 72
     1
 10
1846.499999999999
 20
126.5
 11
1853.5
 21
102.0
 72
     1
 10
1853.5
 20
102.0
 11
1850.0
 21
102.0
 72
     1
 10
1850.0
 20
102.0
 11
1844.75
 21
120.375
 72
     1
 10
1844.75
 20
120.375
 11
1839.5
 21
102.0
 72
     1
 10
1839.5
 20
102.0
 11
1836.0
 21
102.0
 72
     1
 10
1836.0
 20
102.0
 11
1843.0
 21
126.5
 97
        1
330
2899
 75
     0
 76
     1
 98
        1
 10
0.0
 20
0.0
  0
HATCH
  5
289B
330
18
100
AcDbEntity
  8
WAKU-MOJI
  6
Continuous
100
AcDbHatch
 10
0.0
 20
0.0
 30
0.0
210
0.0
220
0.0
230
1.0
  2
SOLID
 70
     1
 71
     1
 91
        6
 92
        1
 93
       12
 72
     1
 10
1888.5
 20
102.0
 11
1874.5
 21
102.0
 72
     1
 10
1874.5
 20
102.0
 11
1874.5
 21
126.5
 72
     1
 10
1874.5
 20
126.5
 11
1888.5
 21
126.5
 72
     1
 10
1888.5
 20
126.5
 11
1888.5
 21
123.0
 72
     1
 10
1888.5
 20
123.0
 11
1878.0
 21
123.0
 72
     1
 10
1878.0
 20
123.0
 11
1878.0
 21
116.0
 72
     1
 10
1878.0
 20
116.0
 11
1888.5
 21
116.0
 72
     1
 10
1888.5
 20
116.0
 11
1888.5
 21
112.5
 72
     1
 10
1888.5
 20
112.5
 11
1878.0
 21
112.5
 72
     1
 10
1878.0
 20
112.5
 11
1878.0
 21
105.4999999999999
 72
     1
 10
1878.0
 20
105.4999999999999
 11
1888.5
 21
105.4999999999999
 72
     1
 10
1888.5
 20
105.4999999999999
 11
1888.5
 21
102.0
 97
        1
330
283D
 92
        1
 93
        6
 72
     1
 10
1902.5
 20
126.5
 11
1902.5
 21
105.4999999999999
 72
     1
 10
1902.5
 20
105.4999999999999
 11
1909.499999999999
 21
105.4999999999999
 72
     1
 10
1909.499999999999
 20
105.4999999999999
 11
1909.499999999999
 21
102.0
 72
     1
 10
1909.499999999999
 20
102.0
 11
1899.0
 21
102.0
 72
     1
 10
1899.0
 20
102.0
 11
1899.0
 21
126.5
 72
     1
 10
1899.0
 20
126.5
 11
1902.5
 21
126.5
 97
        1
330
283C
 92
        1
 93
        4
 72
     1
 10
1913.0
 20
126.5
 11
1913.0
 21
102.0
 72
     1
 10
1913.0
 20
102.0
 11
1916.5
 21
102.0
 72
     1
 10
1916.5
 20
102.0
 11
1916.5
 21
126.5
 72
     1
 10
1916.5
 20
126.5
 11
1913.0
 21
126.5
 97
        1
330
283B
 92
        1
 93
       10
 72
     1
 10
1937.5
 20
102.0
 11
1941.0
 21
102.0
 72
     1
 10
1941.0
 20
102.0
 11
1941.0
 21
119.5
 72
     1
 10
1941.0
 20
119.5
 11
1951.5
 21
102.0
 72
     1
 10
1951.5
 20
102.0
 11
1955.0
 21
102.0
 72
     1
 10
1955.0
 20
102.0
 11
1955.0
 21
126.5
 72
     1
 10
1955.0
 20
126.5
 11
1951.5
 21
126.5
 72
     1
 10
1951.5
 20
126.5
 11
1951.5
 21
109.0
 72
     1
 10
1951.5
 20
109.0
 11
1941.0
 21
126.5
 72
     1
 10
1941.0
 20
126.5
 11
1937.5
 21
126.5
 72
     1
 10
1937.5
 20
126.5
 11
1937.5
 21
102.0
 97
        1
330
283A
 92
        1
 93
       48
 72
     1
 10
1927.0
 20
126.5
 11
1925.85789581807
 21
126.3951995518289
 72
     1
 10
1925.85789581807
 20
126.3951995518289
 11
1924.73533335535
 21
126.082591372041
 72
     1
 10
1924.73533335535
 20
126.082591372041
 11
1923.65151996681
 21
125.567524273263
 72
     1
 10
1923.65151996681
 20
125.567524273263
 11
1922.625
 21
124.858811196359
 72
     1
 10
1922.625
 20
124.858811196359
 11
1921.67333749617
 21
123.968578418568
 72
     1
 10
1921.67333749617
 20
123.968578418568
 11
1920.81281566462
 21
122.912058069535
 72
     1
 10
1920.81281566462
 20
122.912058069535
 11
1920.05815827245
 21
121.7073275053569
 72
     1
 10
1920.05815827245
 20
121.7073275053569
 11
1919.42227771689
 21
120.375
 72
     1
 10
1919.42227771689
 20
120.375
 11
1918.91605409053
 21
118.9378720464719
 72
     1
 10
1918.91605409053
 20
118.9378720464719
 11
1918.54814901997
 21
117.4205333025059
 72
     1
 10
1918.54814901997
 20
117.4205333025059
 11
1918.324857462979
 21
115.8489458546959
 72
     1
 10
1918.324857462979
 20
115.8489458546959
 11
1918.25
 21
114.25
 72
     1
 10
1918.25
 20
114.25
 11
1918.324857462979
 21
112.6510541453039
 72
     1
 10
1918.324857462979
 20
112.6510541453039
 11
1918.54814901997
 21
111.0794666974939
 72
     1
 10
1918.54814901997
 20
111.0794666974939
 11
1918.91605409053
 21
109.5621279535279
 72
     1
 10
1918.91605409053
 20
109.5621279535279
 11
1919.42227771689
 21
108.125
 72
     1
 10
1919.42227771689
 20
108.125
 11
1920.05815827245
 21
106.7926724946429
 72
     1
 10
1920.05815827245
 20
106.7926724946429
 11
1920.81281566462
 21
105.587941930465
 72
     1
 10
1920.81281566462
 20
105.587941930465
 11
1921.67333749617
 21
104.5314215814319
 72
     1
 10
1921.67333749617
 20
104.5314215814319
 11
1922.625
 21
103.6411888036409
 72
     1
 10
1922.625
 20
103.6411888036409
 11
1923.65151996681
 21
102.9324757267369
 72
     1
 10
1923.65151996681
 20
102.9324757267369
 11
1924.73533335535
 21
102.4174086279589
 72
     1
 10
1924.73533335535
 20
102.4174086279589
 11
1925.85789581807
 21
102.104800448171
 72
     1
 10
1925.85789581807
 20
102.104800448171
 11
1927.0
 21
102.0
 72
     1
 10
1927.0
 20
102.0
 11
1928.142104181929
 21
102.104800448171
 72
     1
 10
1928.142104181929
 20
102.104800448171
 11
1929.264666644649
 21
102.4174086279589
 72
     1
 10
1929.264666644649
 20
102.4174086279589
 11
1930.34848003319
 21
102.9324757267369
 72
     1
 10
1930.34848003319
 20
102.9324757267369
 11
1931.375
 21
103.6411888036409
 72
     1
 10
1931.375
 20
103.6411888036409
 11
1932.326662503829
 21
104.5314215814319
 72
     1
 10
1932.326662503829
 20
104.5314215814319
 11
1933.18718433538
 21
105.587941930465
 72
     1
 10
1933.18718433538
 20
105.587941930465
 11
1933.94184172755
 21
106.7926724946429
 72
     1
 10
1933.94184172755
 20
106.7926724946429
 11
1934.577722283109
 21
108.125
 72
     1
 10
1934.577722283109
 20
108.125
 11
1935.08394590947
 21
109.5621279535279
 72
     1
 10
1935.08394590947
 20
109.5621279535279
 11
1935.45185098003
 21
111.0794666974939
 72
     1
 10
1935.45185098003
 20
111.0794666974939
 11
1935.67514253702
 21
112.6510541453039
 72
     1
 10
1935.67514253702
 20
112.6510541453039
 11
1935.75
 21
114.25
 72
     1
 10
1935.75
 20
114.25
 11
1935.67514253702
 21
115.8489458546959
 72
     1
 10
1935.67514253702
 20
115.8489458546959
 11
1935.45185098003
 21
117.4205333025059
 72
     1
 10
1935.45185098003
 20
117.4205333025059
 11
1935.08394590947
 21
118.9378720464719
 72
     1
 10
1935.08394590947
 20
118.9378720464719
 11
1934.577722283109
 21
120.375
 72
     1
 10
1934.577722283109
 20
120.375
 11
1933.94184172755
 21
121.7073275053569
 72
     1
 10
1933.94184172755
 20
121.7073275053569
 11
1933.18718433538
 21
122.912058069535
 72
     1
 10
1933.18718433538
 20
122.912058069535
 11
1932.326662503829
 21
123.968578418568
 72
     1
 10
1932.326662503829
 20
123.968578418568
 11
1931.375
 21
124.858811196359
 72
     1
 10
1931.375
 20
124.858811196359
 11
1930.34848003319
 21
125.567524273263
 72
     1
 10
1930.34848003319
 20
125.567524273263
 11
1929.264666644649
 21
126.082591372041
 72
     1
 10
1929.264666644649
 20
126.082591372041
 11
1928.142104181929
 21
126.3951995518289
 72
     1
 10
1928.142104181929
 20
126.3951995518289
 11
1927.0
 21
126.5
 97
        1
330
2839
 92
       16
 93
       45
 72
     1
 10
1932.25
 20
114.25
 11
1932.19890736089
 21
115.4677646334009
 72
     1
 10
1932.19890736089
 20
115.4677646334009
 11
1932.04662390368
 21
116.661826863399
 72
     1
 10
1932.04662390368
 20
116.661826863399
 11
1931.79611365262
 21
117.808945626913
 72
     1
 10
1931.79611365262
 20
117.808945626913
 11
1931.45225250482
 21
118.886793562041
 72
     1
 10
1931.45225250482
 20
118.886793562041
 11
1931.02173332638
 21
119.8743915847569
 72
     1
 10
1931.02173332638
 20
119.8743915847569
 11
1930.512935683379
 21
120.7525172229269
 72
     1
 10
1930.512935683379
 20
120.7525172229269
 11
1929.93576274322
 21
121.504078759857
 72
     1
 10
1929.93576274322
 20
121.504078759857
 11
1929.30144852064
 21
122.114447905118
 72
     1
 10
1929.30144852064
 20
122.114447905118
 11
1928.62233922047
 21
122.571744517583
 72
     1
 10
1928.62233922047
 20
122.571744517583
 11
1927.911652932749
 21
122.8670678388569
 72
     1
 10
1927.911652932749
 20
122.8670678388569
 11
1927.18322235769
 21
122.9946697364169
 72
     1
 10
1927.18322235769
 20
122.9946697364169
 11
1926.45122556785
 21
122.9520665844719
 72
     1
 10
1926.45122556785
 20
122.9520665844719
 11
1925.7299100481
 21
122.740087604915
 72
     1
 10
1925.7299100481
 20
122.740087604915
 11
1925.03331538457
 21
122.3628587274589
 72
     1
 10
1925.03331538457
 20
122.3628587274589
 11
1924.375
 21
121.8277222831139
 72
     1
 10
1924.375
 20
121.8277222831139
 11
1923.767777254539
 21
121.145094094059
 72
     1
 10
1923.767777254539
 20
121.145094094059
 11
1923.223466048219
 21
120.328260741516
 72
     1
 10
1923.223466048219
 20
120.328260741516
 11
1922.752660779529
 21
119.393120957559
 72
     1
 10
1922.752660779529
 20
119.393120957559
 11
1922.36452513749
 21
118.357876174377
 72
     1
 10
1922.36452513749
 20
118.357876174377
 11
1922.066613740869
 21
117.2426762540999
 72
     1
 10
1922.066613740869
 20
117.2426762540999
 11
1921.864725096149
 21
116.0692272946549
 72
     1
 10
1921.864725096149
 20
116.0692272946549
 11
1921.762788736139
 21
114.8603691452609
 72
     1
 10
1921.762788736139
 20
114.8603691452609
 11
1921.762788736139
 21
113.6396308547389
 72
     1
 10
1921.762788736139
 20
113.6396308547389
 11
1921.864725096149
 21
112.430772705345
 72
     1
 10
1921.864725096149
 20
112.430772705345
 11
1922.066613740869
 21
111.2573237458999
 72
     1
 10
1922.066613740869
 20
111.2573237458999
 11
1922.36452513749
 21
110.142123825624
 72
     1
 10
1922.36452513749
 20
110.142123825624
 11
1922.752660779529
 21
109.106879042441
 72
     1
 10
1922.752660779529
 20
109.106879042441
 11
1923.223466048219
 21
108.171739258484
 72
     1
 10
1923.223466048219
 20
108.171739258484
 11
1923.767777254539
 21
107.3549059059409
 72
     1
 10
1923.767777254539
 20
107.3549059059409
 11
1924.375
 21
106.6722777168859
 72
     1
 10
1924.375
 20
106.6722777168859
 11
1925.03331538457
 21
106.137141272541
 72
     1
 10
1925.03331538457
 20
106.137141272541
 11
1925.7299100481
 21
105.7599123950849
 72
     1
 10
1925.7299100481
 20
105.7599123950849
 11
1926.45122556785
 21
105.547933415528
 72
     1
 10
1926.45122556785
 20
105.547933415528
 11
1927.18322235769
 21
105.5053302635829
 72
     1
 10
1927.18322235769
 20
105.5053302635829
 11
1927.911652932749
 21
105.632932161143
 72
     1
 10
1927.911652932749
 20
105.632932161143
 11
1928.62233922047
 21
105.9282554824169
 72
     1
 10
1928.62233922047
 20
105.9282554824169
 11
1929.30144852064
 21
106.385552094882
 72
     1
 10
1929.30144852064
 20
106.385552094882
 11
1929.93576274322
 21
106.995921240143
 72
     1
 10
1929.93576274322
 20
106.995921240143
 11
1930.512935683379
 21
107.747482777073
 72
     1
 10
1930.512935683379
 20
107.747482777073
 11
1931.02173332638
 21
108.625608415243
 72
     1
 10
1931.02173332638
 20
108.625608415243
 11
1931.45225250482
 21
109.6132064379599
 72
     1
 10
1931.45225250482
 20
109.6132064379599
 11
1931.79611365262
 21
110.691054373087
 72
     1
 10
1931.79611365262
 20
110.691054373087
 11
1932.04662390368
 21
111.838173136601
 72
     1
 10
1932.04662390368
 20
111.838173136601
 11
1932.19890736089
 21
113.032235366599
 72
     1
 10
1932.19890736089
 20
113.032235366599
 11
1932.25
 21
114.25
 97
        1
330
2838
 75
     0
 76
     1
 98
        1
 10
0.0
 20
0.0
  0
TEXT
  5
289C
330
18
100
AcDbEntity
  8
WAKU-MOJI
  6
Continuous
100
AcDbText
 10
2852.8
 20
191.0
 30
0.0
 40
40.0
  1
内部雷保護システム(分電盤)
 41
0.7
  7
M7
 72
     1
 11
3074.0
 21
211.0
 31
0.0
100
AcDbText
 73
     2
  0
ARC
  5
2AB1
330
18
100
AcDbEntity
  8
KYU-JIS
  6
ByBlock
100
AcDbCircle
 10
314.1667180000004
 20
1900.000001
 30
0.0
 40
60.83331999999999
100
AcDbArc
 50
321.8411560000022
 51
38.15883999999808
  0
LWPOLYLINE
  5
2AB2
330
18
100
AcDbEntity
  8
KYU-JIS
  6
ByBlock
100
AcDbPolyline
 90
        5
 70
     0
 43
0.0
 10
370.0
 20
1840.000001999999
 10
330.0
 20
1832.500001999999
 10
370.0
 20
1825.000001999999
 10
330.0
 20
1817.500002
 10
370.0
 20
1810.000001999999
  0
LINE
  5
2AB3
330
18
100
AcDbEntity
  8
KYU-JIS
  6
ByBlock
100
AcDbLine
 10
350.0
 20
1850.000001999999
 30
0.0
 11
350.0
 21
1800.000001999999
 31
0.0
  0
CIRCLE
  5
2ABA
330
18
100
AcDbEntity
  8
KYU-JIS
  6
ByBlock
100
AcDbCircle
 10
350.0
 20
1858.000031999999
 30
0.0
 40
8.0
  0
LWPOLYLINE
  5
2ABB
330
18
100
AcDbEntity
  8
KYU-JIS
  6
ByBlock
100
AcDbPolyline
 90
        4
 70
     0
 43
0.0
 10
375.0
 20
1900.000001
 10
380.0
 20
1900.000001
 10
380.0
 20
1825.000001999999
 10
370.0
 20
1825.000001999999
  0
LINE
  5
2ABD
330
18
100
AcDbEntity
  8
KYU-JIS
  6
ByBlock
100
AcDbLine
 10
350.0
 20
2000.0
 30
0.0
 11
350.0
 21
1950.0
 31
0.0
  0
CIRCLE
  5
2AC0
330
18
100
AcDbEntity
  8
KYU-JIS
  6
ByBlock
100
AcDbCircle
 10
350.0
 20
1941.999969999999
 30
0.0
 40
8.0
  0
TEXT
  5
2B48
330
18
100
AcDbEntity
  8
WAKU-MOJI
  6
Continuous
100
AcDbText
 10
2712.733333333333
 20
83.39744875852193
 30
0.0
 40
40.0
  1
1φ3W接地相あり
 41
0.7
  7
M7
 72
     1
 11
2849.0
 21
103.3974487585219
 31
0.0
100
AcDbText
 73
     2
  0
TEXT
  5
2C5F
330
18
100
AcDbEntity
  8
WAKU-MOJI
  6
Continuous
100
AcDbText
 10
3637.333333333333
 20
166.0
 30
0.0
 40
40.0
  1
(キュービクル屋外設置)
 41
0.7
  7
M7
 72
     1
 11
3824.0
 21
186.0
 31
0.0
100
AcDbText
 73
     2
  0
LINE
  5
2C89
330
18
100
AcDbEntity
  8
KYU-JIS
  6
ByBlock
100
AcDbLine
 10
2325.0
 20
2450.0
 30
0.0
 11
2325.0
 21
2495.0
 31
0.0
  0
CIRCLE
  5
2C8B
330
18
100
AcDbEntity
  8
KYU-JIS
  6
ByBlock
100
AcDbCircle
 10
2325.0
 20
2525.0
 30
0.0
 40
30.0
  0
LINE
  5
2C8D
330
18
100
AcDbEntity
  8
KYU-JIS
  6
ByBlock
100
AcDbLine
 10
2360.355339059327
 20
2489.644622940672
 30
0.0
 11
2346.213203435596
 21
2503.786758564404
 31
0.0
  0
LINE
  5
2C8E
330
18
100
AcDbEntity
  8
KYU-JIS
  6
ByBlock
100
AcDbLine
 10
2360.355339059327
 20
2560.355301059327
 30
0.0
 11
2346.213203435596
 21
2546.213165435596
 31
0.0
  0
LINE
  5
2C8F
330
18
100
AcDbEntity
  8
KYU-JIS
  6
ByBlock
100
AcDbLine
 10
2303.786796564403
 20
2503.786758564404
 30
0.0
 11
2289.644660940672
 21
2489.644622940672
 31
0.0
  0
LINE
  5
2C90
330
18
100
AcDbEntity
  8
KYU-JIS
  6
ByBlock
100
AcDbLine
 10
2303.786796564403
 20
2546.213165435596
 30
0.0
 11
2289.644660940672
 21
2560.355301059327
 31
0.0
  0
LINE
  5
2C98
330
18
100
AcDbEntity
  8
KYU-JIS
  6
ByBlock
 62
     7
100
AcDbLine
 10
2312.5
 20
2387.5
 30
0.0
 11
2337.499999999999
 21
2312.5
 31
0.0
  0
TEXT
  5
2DED
330
18
100
AcDbEntity
  8
1
  6
Continuous
100
AcDbText
 10
2637.499991976963
 20
2380.000001811203
 30
0.0
 40
40.0
  1

 41
0.7
  7
M7
 11
2637.499991976963
 21
2400.000001811204
 31
0.0
100
AcDbText
 73
     2
  0
TEXT
  5
33B8
330
18
100
AcDbEntity
  8
WAKU-MOJI
  6
Continuous
100
AcDbText
 10
3680.266666666666
 20
216.0
 30
0.0
 40
40.0
  1
直撃雷対策ケース3
 41
0.7
  7
M7
 72
     1
 11
3824.0
 21
236.0
 31
0.0
100
AcDbText
 73
     2
  0
LINE
  5
36FA
330
18
100
AcDbEntity
  8
1
  6
Continuous
100
AcDbLine
 10
1400.0
 20
1350.0
 30
0.0
 11
2750.0
 21
1350.0
 31
0.0
  0
LINE
  5
36FB
330
18
100
AcDbEntity
  8
1
  6
Continuous
100
AcDbLine
 10
2750.0
 20
1250.0
 30
0.0
 11
200.0
 21
1250.0
 31
0.0
  0
LINE
  5
36FC
330
18
100
AcDbEntity
  8
1
  6
Continuous
100
AcDbLine
 10
1400.0
 20
1450.0
 30
0.0
 11
2750.0
 21
1450.0
 31
0.0
  0
LINE
  5
36FD
330
18
100
AcDbEntity
  8
1
  6
Continuous
100
AcDbLine
 10
1400.0
 20
1550.0
 30
0.0
 11
2750.0
 21
1550.0
 31
0.0
  0
LINE
  5
36FE
330
18
100
AcDbEntity
  8
1
  6
Continuous
100
AcDbLine
 10
1400.0
 20
1750.0
 30
0.0
 11
2750.0
 21
1750.0
 31
0.0
  0
LINE
  5
36FF
330
18
100
AcDbEntity
  8
1
  6
Continuous
100
AcDbLine
 10
1400.0
 20
1650.0
 30
0.0
 11
2750.0
 21
1650.0
 31
0.0
  0
LINE
  5
3700
330
18
100
AcDbEntity
  8
1
  6
Continuous
100
AcDbLine
 10
1400.0
 20
1850.0
 30
0.0
 11
2750.0
 21
1850.0
 31
0.0
  0
LINE
  5
3701
330
18
100
AcDbEntity
  8
1
  6
Continuous
100
AcDbLine
 10
1400.0
 20
1950.0
 30
0.0
 11
2750.0
 21
1950.0
 31
0.0
  0
LINE
  5
3702
330
18
100
AcDbEntity
  8
1
  6
Continuous
100
AcDbLine
 10
1400.0
 20
2450.0
 30
0.0
 11
2750.0
 21
2450.0
 31
0.0
  0
LINE
  5
3703
330
18
100
AcDbEntity
  8
1
  6
Continuous
100
AcDbLine
 10
1400.0
 20
2350.0
 30
0.0
 11
2750.0
 21
2350.0
 31
0.0
  0
LINE
  5
3704
330
18
100
AcDbEntity
  8
1
  6
Continuous
100
AcDbLine
 10
1400.0
 20
2150.0
 30
0.0
 11
2750.0
 21
2150.0
 31
0.0
  0
LINE
  5
3705
330
18
100
AcDbEntity
  8
1
  6
Continuous
100
AcDbLine
 10
1400.0
 20
2250.0
 30
0.0
 11
2750.0
 21
2250.0
 31
0.0
  0
LINE
  5
3706
330
18
100
AcDbEntity
  8
1
  6
Continuous
100
AcDbLine
 10
1400.0
 20
2050.0
 30
0.0
 11
2750.0
 21
2050.0
 31
0.0
  0
LINE
  5
3707
330
18
100
AcDbEntity
  8
1
  6
Continuous
100
AcDbLine
 10
1400.0
 20
2650.0
 30
0.0
 11
2750.0
 21
2650.0
 31
0.0
  0
LINE
  5
3708
330
18
100
AcDbEntity
  8
1
  6
Continuous
100
AcDbLine
 10
200.0
 20
2550.0
 30
0.0
 11
2750.0
 21
2550.0
 31
0.0
  0
LINE
  5
3709
330
18
100
AcDbEntity
  8
1
  6
Continuous
100
AcDbLine
 10
200.0
 20
2750.0
 30
0.0
 11
2750.0
 21
2750.0
 31
0.0
  0
TEXT
  5
370A
330
18
100
AcDbEntity
  8
1
  6
Continuous
100
AcDbText
 10
2100.000001899141
 20
2579.99999285548
 30
0.0
 40
40.0
  1
容量(VA)
 41
0.7
  7
M7
 11
2100.000001899141
 21
2599.99999285548
 31
0.0
100
AcDbText
 73
     2
  0
LINE
  5
370B
330
18
100
AcDbEntity
  8
1
  6
Continuous
100
AcDbLine
 10
600.0
 20
1250.0
 30
0.0
 11
600.0
 21
2750.0
 31
0.0
  0
LINE
  5
370C
330
18
100
AcDbEntity
  8
1
  6
Continuous
100
AcDbLine
 10
400.0
 20
1250.0
 30
0.0
 11
400.0
 21
2750.0
 31
0.0
  0
LINE
  5
370D
330
18
100
AcDbEntity
  8
1
  6
Continuous
100
AcDbLine
 10
200.0
 20
1250.0
 30
0.0
 11
200.0
 21
2750.0
 31
0.0
  0
CIRCLE
  5
370E
330
18
100
AcDbEntity
  8
1
  6
Continuous
100
AcDbCircle
 10
1512.500003978924
 20
1499.999991613413
 30
0.0
 40
37.5
  0
TEXT
  5
370F
330
18
100
AcDbEntity
  8
1
  6
Continuous
100
AcDbText
 10
1500.000001899141
 20
1479.99999285548
 30
0.0
 40
40.0
  1
4
 41
0.7
  7
M7
 11
1500.000001899141
 21
1499.99999285548
 31
0.0
100
AcDbText
 73
     2
  0
LINE
  5
3710
330
18
100
AcDbEntity
  8
1
  6
Continuous
100
AcDbLine
 10
1400.000003978924
 20
2749.999991613413
 30
0.0
 11
1400.000003978924
 21
1249.999991613413
 31
0.0
  0
LINE
  5
3711
330
18
100
AcDbEntity
  8
1
  6
Continuous
100
AcDbLine
 10
1250.000003978924
 20
1799.999991613413
 30
0.0
 11
1250.000003978924
 21
1299.999991613413
 31
0.0
  0
LINE
  5
3712
330
18
100
AcDbEntity
  8
1
  6
Continuous
100
AcDbLine
 10
2050.000003978925
 20
2649.999991613412
 30
0.0
 11
2050.000003978925
 21
1249.999991613413
 31
0.0
  0
LINE
  5
3713
330
18
100
AcDbEntity
  8
1
  6
Continuous
100
AcDbLine
 10
1650.000003978925
 20
2649.999991613412
 30
0.0
 11
1650.000003978925
 21
1249.999991613413
 31
0.0
  0
LINE
  5
3714
330
18
100
AcDbEntity
  8
1
  6
Continuous
100
AcDbLine
 10
1250.0
 20
1300.0
 30
0.0
 11
1400.0
 21
1300.0
 31
0.0
  0
LINE
  5
3715
330
18
100
AcDbEntity
  8
1
  6
Continuous
100
AcDbLine
 10
1250.0
 20
1400.0
 30
0.0
 11
1400.0
 21
1400.0
 31
0.0
  0
LWPOLYLINE
  5
3716
330
18
100
AcDbEntity
  8
KUROMARU
  6
Continuous
100
AcDbPolyline
 90
        2
 70
     1
 43
5.0
 10
1250.0
 20
1397.499999999999
 42
1.0
 10
1250.0
 20
1402.5
 42
1.0
  0
CIRCLE
  5
3717
330
18
100
AcDbEntity
  8
1
  6
Continuous
100
AcDbCircle
 10
1512.500003978924
 20
1399.999991613412
 30
0.0
 40
37.5
  0
CIRCLE
  5
3718
330
18
100
AcDbEntity
  8
1
  6
Continuous
100
AcDbCircle
 10
1512.500003978924
 20
1299.999991613413
 30
0.0
 40
37.5
  0
TEXT
  5
3719
330
18
100
AcDbEntity
  8
1
  6
Continuous
100
AcDbText
 10
1500.000001899141
 20
1279.99999285548
 30
0.0
 40
40.0
  1
6
 41
0.7
  7
M7
 11
1500.000001899141
 21
1299.99999285548
 31
0.0
100
AcDbText
 73
     2
  0
TEXT
  5
371A
330
18
100
AcDbEntity
  8
1
  6
Continuous
100
AcDbText
 10
1500.000001899141
 20
1379.99999285548
 30
0.0
 40
40.0
  1
5
 41
0.7
  7
M7
 11
1500.000001899141
 21
1399.99999285548
 31
0.0
100
AcDbText
 73
     2
  0
LINE
  5
371B
330
18
100
AcDbEntity
  8
LAY-1
  6
Continuous
 62
     7
100
AcDbLine
 10
699.9999930311278
 20
1800.0
 30
0.0
 11
999.9999930311277
 21
1800.0
 31
0.0
  0
LINE
  5
371C
330
18
100
AcDbEntity
  8
LAY-1
  6
Continuous
 62
     7
100
AcDbLine
 10
699.9999930311278
 20
2300.0
 30
0.0
 11
999.9999930311277
 21
2300.0
 31
0.0
  0
LINE
  5
371D
330
18
100
AcDbEntity
  8
C-CIRCUIT
  6
Continuous
100
AcDbLine
 10
749.9999930311278
 20
2412.5
 30
0.0
 11
749.9999930311278
 21
2425.0
 31
0.0
  0
LINE
  5
371E
330
18
100
AcDbEntity
  8
SIN-JIS
  6
ByBlock
100
AcDbLine
 10
750.0000310311279
 20
1974.999962
 30
0.0
 11
750.0000310311279
 21
1924.999962
 31
0.0
  0
LINE
  5
371F
330
18
100
AcDbEntity
  8
C-CIRCUIT
  6
Continuous
100
AcDbLine
 10
749.9999930311278
 20
1800.0
 30
0.0
 11
749.9999930311278
 21
1837.5
 31
0.0
  0
INSERT
  5
3720
330
18
100
AcDbEntity
  8
1
  6
Continuous
100
AcDbBlockReference
  2
AL01
 10
699.9999930311278
 20
1800.0
 30
0.0
 50
270.0
  0
LWPOLYLINE
  5
3721
330
18
100
AcDbEntity
  8
KUROMARU
  6
Continuous
100
AcDbPolyline
 90
        2
 70
     1
 43
5.0
 10
749.9999930311278
 20
1797.5
 42
1.0
 10
749.9999930311278
 20
1802.5
 42
1.0
  0
LINE
  5
3722
330
18
100
AcDbEntity
  8
1
  6
Continuous
100
AcDbLine
 10
749.9999930311278
 20
1800.0
 30
0.0
 11
749.9999930311278
 21
1800.0
 31
0.0
  0
LWPOLYLINE
  5
3723
330
18
100
AcDbEntity
  8
C-CIRCUIT
  6
ByBlock
 62
     7
100
AcDbPolyline
 90
        4
 70
     1
 43
0.0
 10
737.4999930311278
 20
1837.5
 10
737.4999930311278
 20
1912.5
 10
762.4999930311278
 20
1912.5
 10
762.4999930311278
 20
1837.5
  0
LINE
  5
3724
330
18
100
AcDbEntity
  8
SIN-JIS
  6
ByBlock
 62
     7
100
AcDbLine
 10
749.9999930311278
 20
1912.5
 30
0.0
 11
749.9999930311278
 21
1837.5
 31
0.0
  0
LINE
  5
3725
330
18
100
AcDbEntity
  8
C-CIRCUIT
  6
Continuous
100
AcDbLine
 10
749.9999930311278
 20
1912.5
 30
0.0
 11
749.9999930311278
 21
1925.0
 31
0.0
  0
CIRCLE
  5
3726
330
18
100
AcDbEntity
  8
SIN-JIS
  6
ByBlock
100
AcDbCircle
 10
749.9999930311278
 20
2000.0
 30
0.0
 40
25.0
  0
LINE
  5
3727
330
18
100
AcDbEntity
  8
1
  6
Continuous
100
AcDbLine
 10
732.3223235014648
 20
1982.322330470336
 30
0.0
 11
767.6776625607917
 21
2017.677669529664
 31
0.0
  0
LINE
  5
3728
330
18
100
AcDbEntity
  8
1
  6
Continuous
100
AcDbLine
 10
732.3223235014638
 20
2017.677669529664
 30
0.0
 11
767.6776625607908
 21
1982.322330470336
 31
0.0
  0
LWPOLYLINE
  5
3729
330
18
100
AcDbEntity
  8
KUROMARU
  6
Continuous
100
AcDbPolyline
 90
        2
 70
     1
 43
5.0
 10
749.9999930311278
 20
2297.5
 42
1.0
 10
749.9999930311278
 20
2302.5
 42
1.0
  0
INSERT
  5
372A
330
18
100
AcDbEntity
  8
1
  6
Continuous
100
AcDbBlockReference
  2
AL01
 10
699.9999930311278
 20
2300.0
 30
0.0
 50
270.0
  0
LWPOLYLINE
  5
372B
330
18
100
AcDbEntity
  8
C-CIRCUIT
  6
ByBlock
 62
     7
100
AcDbPolyline
 90
        4
 70
     1
 43
0.0
 10
737.4999930311278
 20
2337.5
 10
737.4999930311278
 20
2412.5
 10
762.4999930311278
 20
2412.5
 10
762.4999930311278
 20
2337.5
  0
LINE
  5
372C
330
18
100
AcDbEntity
  8
SIN-JIS
  6
ByBlock
 62
     7
100
AcDbLine
 10
749.9999930311278
 20
2412.5
 30
0.0
 11
749.9999930311278
 21
2337.5
 31
0.0
  0
LINE
  5
372D
330
18
100
AcDbEntity
  8
1
  6
Continuous
100
AcDbLine
 10
749.9999930311278
 20
2300.0
 30
0.0
 11
749.9999930311278
 21
2300.0
 31
0.0
  0
LINE
  5
372E
330
18
100
AcDbEntity
  8
C-CIRCUIT
  6
Continuous
100
AcDbLine
 10
749.9999930311278
 20
2300.0
 30
0.0
 11
749.9999930311278
 21
2337.5
 31
0.0
  0
TEXT
  5
372F
330
18
100
AcDbEntity
  8
1
  6
Continuous
100
AcDbText
 10
424.9999979202166
 20
2605.000001242068
 30
0.0
 40
40.0
  1
容量(kW）
 41
0.7
  7
M7
 11
424.9999979202166
 21
2625.000001242067
 31
0.0
100
AcDbText
 73
     2
  0
TEXT
  5
3730
330
18
100
AcDbEntity
  8
1
  6
Continuous
100
AcDbText
 10
424.9999979202166
 20
2655.000001242068
 30
0.0
 40
40.0
  1
幹線番号
 41
0.7
  7
M7
 11
424.9999979202166
 21
2675.000001242068
 31
0.0
100
AcDbText
 73
     2
  0
TEXT
  5
3731
330
18
100
AcDbEntity
  8
1
  6
Continuous
100
AcDbText
 10
249.9999979202166
 20
2455.000001242067
 30
0.0
 40
40.0
  1
L-1
 41
0.7
  7
M7
 11
249.9999979202166
 21
2475.000001242067
 31
0.0
100
AcDbText
 73
     2
  0
TEXT
  5
3732
330
18
100
AcDbEntity
  8
1
  6
Continuous
100
AcDbText
 10
249.9999979202166
 20
2655.000001242068
 30
0.0
 40
40.0
  1
盤名称
 41
0.7
  7
M7
 11
249.9999979202166
 21
2675.000001242068
 31
0.0
100
AcDbText
 73
     2
  0
LINE
  5
3733
330
18
100
AcDbEntity
  8
SIN-JIS
  6
ByBlock
100
AcDbLine
 10
750.0000310311279
 20
2474.999962
 30
0.0
 11
750.0000310311279
 21
2424.999962000001
 31
0.0
  0
LINE
  5
3734
330
18
100
AcDbEntity
  8
1
  6
Continuous
100
AcDbLine
 10
732.3223235014638
 20
2517.677669529664
 30
0.0
 11
767.6776625607908
 21
2482.322330470336
 31
0.0
  0
LINE
  5
3735
330
18
100
AcDbEntity
  8
1
  6
Continuous
100
AcDbLine
 10
732.3223235014648
 20
2482.322330470336
 30
0.0
 11
767.6776625607917
 21
2517.677669529664
 31
0.0
  0
CIRCLE
  5
3736
330
18
100
AcDbEntity
  8
SIN-JIS
  6
ByBlock
100
AcDbCircle
 10
749.9999930311278
 20
2500.0
 30
0.0
 40
25.0
  0
CIRCLE
  5
3737
330
18
100
AcDbEntity
  8
1
  6
Continuous
100
AcDbCircle
 10
1512.500003978924
 20
2399.999991613412
 30
0.0
 40
37.5
  0
TEXT
  5
3738
330
18
100
AcDbEntity
  8
1
  6
Continuous
100
AcDbText
 10
1500.000001899141
 20
2379.99999285548
 30
0.0
 40
40.0
  1
2
 41
0.7
  7
M7
 11
1500.000001899141
 21
2399.99999285548
 31
0.0
100
AcDbText
 73
     2
  0
LINE
  5
3739
330
18
100
AcDbEntity
  8
1
  6
Continuous
100
AcDbLine
 10
1250.000003978924
 20
2499.999991613413
 30
0.0
 11
1250.000003978924
 21
1999.999991613412
 31
0.0
  0
LINE
  5
373A
330
18
100
AcDbEntity
  8
SIN-JIS
  6
ByBlock
100
AcDbLine
 10
1050.0
 20
1775.0
 30
0.0
 11
1129.999998999999
 21
1800.0
 31
0.0
  0
LINE
  5
373B
330
18
100
AcDbEntity
  8
SIN-JIS
  6
ByBlock
100
AcDbLine
 10
875.0001143469361
 20
1749.999972291729
 30
0.0
 11
900.0001143469361
 21
1669.999973291729
 31
0.0
  0
LINE
  5
373C
330
18
100
AcDbEntity
  8
1
  6
DASHDOT
100
AcDbLine
 10
825.0001213158084
 20
1524.999971727633
 30
0.0
 11
825.0001213158084
 21
1824.999971727633
 31
0.0
  0
LINE
  5
373D
330
18
100
AcDbEntity
  8
1
  6
DASHDOT
100
AcDbLine
 10
975.0001213158084
 20
1824.999971727633
 30
0.0
 11
975.0001213158084
 21
1524.999971727633
 31
0.0
  0
LINE
  5
373E
330
18
100
AcDbEntity
  8
1
  6
DASHDOT
100
AcDbLine
 10
975.0001213158084
 20
1524.999971727633
 30
0.0
 11
825.0001213158084
 21
1524.999971727633
 31
0.0
  0
LINE
  5
373F
330
18
100
AcDbEntity
  8
SIN-JIS
  6
ByBlock
100
AcDbLine
 10
900.0001143469361
 20
1669.999973291729
 30
0.0
 11
900.0001143469361
 21
1599.999974291729
 31
0.0
  0
TEXT
  5
3740
330
18
100
AcDbEntity
  8
1
  6
Continuous
100
AcDbText
 10
862.5001087289419
 20
1554.999985088994
 30
0.0
 40
40.0
  1
SPD
 41
0.7
  7
M7
 11
862.5001087289419
 21
1574.999985088994
 31
0.0
100
AcDbText
 73
     2
  0
LWPOLYLINE
  5
3741
330
18
100
AcDbEntity
  8
1
  6
Continuous
100
AcDbPolyline
 90
        4
 70
     1
 43
0.0
 10
850.0001143469361
 20
1599.999972291729
 10
950.0001143469361
 20
1599.999972291729
 10
950.0001143469361
 20
1549.999972291729
 10
850.0001143469361
 20
1549.999972291729
  0
LINE
  5
3742
330
18
100
AcDbEntity
  8
1
  6
DASHDOT
100
AcDbLine
 10
825.0001213158084
 20
1824.999971727633
 30
0.0
 11
975.0001213158084
 21
1824.999971727633
 31
0.0
  0
LINE
  5
3743
330
18
100
AcDbEntity
  8
SIN-JIS
  6
ByBlock
100
AcDbLine
 10
900.0001143469361
 20
1799.999972291729
 30
0.0
 11
900.0001143469361
 21
1739.999972291729
 31
0.0
  0
LINE
  5
3744
330
18
100
AcDbEntity
  8
SIN-JIS
  6
ByBlock
100
AcDbLine
 10
892.0002363469357
 20
1731.999942291729
 30
0.0
 11
907.9999923469358
 21
1748.000003291729
 31
0.0
  0
LINE
  5
3745
330
18
100
AcDbEntity
  8
SIN-JIS
  6
ByBlock
100
AcDbLine
 10
892.0002363469357
 20
1748.000003291729
 30
0.0
 11
907.9999923469358
 21
1731.999942291729
 31
0.0
  0
LWPOLYLINE
  5
3746
330
18
100
AcDbEntity
  8
KUROMARU
  6
Continuous
100
AcDbPolyline
 90
        2
 70
     1
 43
5.0
 10
900.0001143469361
 20
1797.499972291729
 42
1.0
 10
900.0001143469361
 20
1802.499972291729
 42
1.0
  0
LINE
  5
3747
330
18
100
AcDbEntity
  8
1
  6
Continuous
100
AcDbLine
 10
900.0001143469361
 20
1799.999972291729
 30
0.0
 11
900.0001143469361
 21
1799.999972291729
 31
0.0
  0
LINE
  5
3748
330
18
100
AcDbEntity
  8
SIN-JIS
  6
ByBlock
100
AcDbLine
 10
1000.0
 20
1800.0
 30
0.0
 11
1060.0
 21
1800.0
 31
0.0
  0
LINE
  5
3749
330
18
100
AcDbEntity
  8
SIN-JIS
  6
ByBlock
100
AcDbLine
 10
1051.999969
 20
1792.000121999999
 30
0.0
 11
1068.00003
 21
1807.999877999999
 31
0.0
  0
LINE
  5
374A
330
18
100
AcDbEntity
  8
SIN-JIS
  6
ByBlock
100
AcDbLine
 10
1068.00003
 20
1792.000121999999
 30
0.0
 11
1051.999969
 21
1807.999877999999
 31
0.0
  0
LINE
  5
374B
330
18
100
AcDbEntity
  8
1
  6
Continuous
100
AcDbLine
 10
1250.0
 20
1600.0
 30
0.0
 11
1400.0
 21
1600.0
 31
0.0
  0
LINE
  5
374C
330
18
100
AcDbEntity
  8
1
  6
Continuous
100
AcDbLine
 10
1250.0
 20
1700.0
 30
0.0
 11
1400.0
 21
1700.0
 31
0.0
  0
LINE
  5
374D
330
18
100
AcDbEntity
  8
1
  6
Continuous
100
AcDbLine
 10
1250.0
 20
1500.0
 30
0.0
 11
1400.0
 21
1500.0
 31
0.0
  0
LWPOLYLINE
  5
374E
330
18
100
AcDbEntity
  8
KUROMARU
  6
Continuous
100
AcDbPolyline
 90
        2
 70
     1
 43
5.0
 10
1250.0
 20
1597.5
 42
1.0
 10
1250.0
 20
1602.5
 42
1.0
  0
LWPOLYLINE
  5
374F
330
18
100
AcDbEntity
  8
KUROMARU
  6
Continuous
100
AcDbPolyline
 90
        2
 70
     1
 43
5.0
 10
1250.0
 20
1497.5
 42
1.0
 10
1250.0
 20
1502.5
 42
1.0
  0
LWPOLYLINE
  5
3750
330
18
100
AcDbEntity
  8
KUROMARU
  6
Continuous
100
AcDbPolyline
 90
        2
 70
     1
 43
5.0
 10
1250.0
 20
1697.5
 42
1.0
 10
1250.0
 20
1702.499999999999
 42
1.0
  0
LINE
  5
3751
330
18
100
AcDbEntity
  8
1
  6
Continuous
100
AcDbLine
 10
1200.0
 20
1800.0
 30
0.0
 11
1400.0
 21
1800.0
 31
0.0
  0
LINE
  5
3752
330
18
100
AcDbEntity
  8
SIN-JIS
  6
ByBlock
100
AcDbLine
 10
1129.999998999999
 20
1800.0
 30
0.0
 11
1199.999998
 21
1800.0
 31
0.0
  0
LWPOLYLINE
  5
3753
330
18
100
AcDbEntity
  8
KUROMARU
  6
Continuous
100
AcDbPolyline
 90
        2
 70
     1
 43
5.0
 10
1250.0
 20
1797.5
 42
1.0
 10
1250.0
 20
1802.5
 42
1.0
  0
LINE
  5
3754
330
18
100
AcDbEntity
  8
SIN-JIS
  6
ByBlock
100
AcDbLine
 10
1050.0
 20
2275.0
 30
0.0
 11
1129.999998999999
 21
2300.0
 31
0.0
  0
LINE
  5
3755
330
18
100
AcDbEntity
  8
1
  6
DASHDOT
100
AcDbLine
 10
975.0001213158084
 20
2324.999971727633
 30
0.0
 11
975.0001213158084
 21
2024.999971727633
 31
0.0
  0
LINE
  5
3756
330
18
100
AcDbEntity
  8
1
  6
DASHDOT
100
AcDbLine
 10
825.0001213158084
 20
2024.999971727633
 30
0.0
 11
825.0001213158084
 21
2324.999971727633
 31
0.0
  0
LINE
  5
3757
330
18
100
AcDbEntity
  8
SIN-JIS
  6
ByBlock
100
AcDbLine
 10
875.0001143469361
 20
2249.999972291729
 30
0.0
 11
900.0001143469361
 21
2169.999973291729
 31
0.0
  0
LINE
  5
3758
330
18
100
AcDbEntity
  8
1
  6
DASHDOT
100
AcDbLine
 10
975.0001213158084
 20
2024.999971727633
 30
0.0
 11
825.0001213158084
 21
2024.999971727633
 31
0.0
  0
LWPOLYLINE
  5
3759
330
18
100
AcDbEntity
  8
1
  6
Continuous
100
AcDbPolyline
 90
        4
 70
     1
 43
0.0
 10
850.0001143469361
 20
2099.999972291729
 10
950.0001143469361
 20
2099.999972291729
 10
950.0001143469361
 20
2049.999972291729
 10
850.0001143469361
 20
2049.999972291729
  0
TEXT
  5
375A
330
18
100
AcDbEntity
  8
1
  6
Continuous
100
AcDbText
 10
862.5001087289419
 20
2054.999985088994
 30
0.0
 40
40.0
  1
SPD
 41
0.7
  7
M7
 11
862.5001087289419
 21
2074.999985088994
 31
0.0
100
AcDbText
 73
     2
  0
LINE
  5
375B
330
18
100
AcDbEntity
  8
SIN-JIS
  6
ByBlock
100
AcDbLine
 10
900.0001143469361
 20
2169.999973291729
 30
0.0
 11
900.0001143469361
 21
2099.999974291729
 31
0.0
  0
LINE
  5
375C
330
18
100
AcDbEntity
  8
1
  6
DASHDOT
100
AcDbLine
 10
825.0001213158084
 20
2324.999971727633
 30
0.0
 11
975.0001213158084
 21
2324.999971727633
 31
0.0
  0
LINE
  5
375D
330
18
100
AcDbEntity
  8
SIN-JIS
  6
ByBlock
100
AcDbLine
 10
900.0001143469361
 20
2299.999972291729
 30
0.0
 11
900.0001143469361
 21
2239.999972291729
 31
0.0
  0
LWPOLYLINE
  5
375E
330
18
100
AcDbEntity
  8
KUROMARU
  6
Continuous
100
AcDbPolyline
 90
        2
 70
     1
 43
5.0
 10
900.0001143469361
 20
2297.499972291729
 42
1.0
 10
900.0001143469361
 20
2302.499972291729
 42
1.0
  0
LINE
  5
375F
330
18
100
AcDbEntity
  8
SIN-JIS
  6
ByBlock
100
AcDbLine
 10
892.0002363469357
 20
2248.000003291729
 30
0.0
 11
907.9999923469358
 21
2231.999942291729
 31
0.0
  0
LINE
  5
3760
330
18
100
AcDbEntity
  8
SIN-JIS
  6
ByBlock
100
AcDbLine
 10
892.0002363469357
 20
2231.999942291729
 30
0.0
 11
907.9999923469358
 21
2248.000003291729
 31
0.0
  0
LINE
  5
3761
330
18
100
AcDbEntity
  8
1
  6
Continuous
100
AcDbLine
 10
900.0001143469361
 20
2299.999972291729
 30
0.0
 11
900.0001143469361
 21
2299.999972291729
 31
0.0
  0
LINE
  5
3762
330
18
100
AcDbEntity
  8
SIN-JIS
  6
ByBlock
100
AcDbLine
 10
1068.00003
 20
2292.000121999999
 30
0.0
 11
1051.999969
 21
2307.999877999999
 31
0.0
  0
LINE
  5
3763
330
18
100
AcDbEntity
  8
SIN-JIS
  6
ByBlock
100
AcDbLine
 10
1051.999969
 20
2292.000121999999
 30
0.0
 11
1068.00003
 21
2307.999877999999
 31
0.0
  0
LINE
  5
3764
330
18
100
AcDbEntity
  8
SIN-JIS
  6
ByBlock
100
AcDbLine
 10
1000.0
 20
2300.0
 30
0.0
 11
1060.0
 21
2300.0
 31
0.0
  0
LINE
  5
3765
330
18
100
AcDbEntity
  8
1
  6
Continuous
100
AcDbLine
 10
1250.0
 20
2100.0
 30
0.0
 11
1400.0
 21
2100.0
 31
0.0
  0
LINE
  5
3766
330
18
100
AcDbEntity
  8
1
  6
Continuous
100
AcDbLine
 10
1250.0
 20
2000.0
 30
0.0
 11
1400.0
 21
2000.0
 31
0.0
  0
LWPOLYLINE
  5
3767
330
18
100
AcDbEntity
  8
KUROMARU
  6
Continuous
100
AcDbPolyline
 90
        2
 70
     1
 43
5.0
 10
1250.0
 20
2097.5
 42
1.0
 10
1250.0
 20
2102.5
 42
1.0
  0
LINE
  5
3768
330
18
100
AcDbEntity
  8
1
  6
Continuous
100
AcDbLine
 10
1250.0
 20
2200.0
 30
0.0
 11
1400.0
 21
2200.0
 31
0.0
  0
LINE
  5
3769
330
18
100
AcDbEntity
  8
1
  6
Continuous
100
AcDbLine
 10
1200.0
 20
2300.0
 30
0.0
 11
1400.0
 21
2300.0
 31
0.0
  0
LINE
  5
376A
330
18
100
AcDbEntity
  8
1
  6
Continuous
100
AcDbLine
 10
1250.0
 20
2400.0
 30
0.0
 11
1400.0
 21
2400.0
 31
0.0
  0
LWPOLYLINE
  5
376B
330
18
100
AcDbEntity
  8
KUROMARU
  6
Continuous
100
AcDbPolyline
 90
        2
 70
     1
 43
5.0
 10
1250.0
 20
2297.5
 42
1.0
 10
1250.0
 20
2302.5
 42
1.0
  0
LWPOLYLINE
  5
376C
330
18
100
AcDbEntity
  8
KUROMARU
  6
Continuous
100
AcDbPolyline
 90
        2
 70
     1
 43
5.0
 10
1250.0
 20
2197.5
 42
1.0
 10
1250.0
 20
2202.5
 42
1.0
  0
LINE
  5
376D
330
18
100
AcDbEntity
  8
SIN-JIS
  6
ByBlock
100
AcDbLine
 10
1129.999998999999
 20
2300.0
 30
0.0
 11
1199.999998
 21
2300.0
 31
0.0
  0
LWPOLYLINE
  5
376E
330
18
100
AcDbEntity
  8
KUROMARU
  6
Continuous
100
AcDbPolyline
 90
        2
 70
     1
 43
5.0
 10
1250.0
 20
2397.5
 42
1.0
 10
1250.0
 20
2402.5
 42
1.0
  0
CIRCLE
  5
376F
330
18
100
AcDbEntity
  8
1
  6
Continuous
100
AcDbCircle
 10
1512.500003978924
 20
1699.999991613412
 30
0.0
 40
37.5
  0
TEXT
  5
3770
330
18
100
AcDbEntity
  8
1
  6
Continuous
100
AcDbText
 10
1500.000001899141
 20
1679.99999285548
 30
0.0
 40
40.0
  1
2
 41
0.7
  7
M7
 11
1500.000001899141
 21
1699.99999285548
 31
0.0
100
AcDbText
 73
     2
  0
CIRCLE
  5
3771
330
18
100
AcDbEntity
  8
1
  6
Continuous
100
AcDbCircle
 10
1512.500003978924
 20
1599.999991613413
 30
0.0
 40
37.5
  0
TEXT
  5
3772
330
18
100
AcDbEntity
  8
1
  6
Continuous
100
AcDbText
 10
1500.000001899141
 20
1579.99999285548
 30
0.0
 40
40.0
  1
3
 41
0.7
  7
M7
 11
1500.000001899141
 21
1599.99999285548
 31
0.0
100
AcDbText
 73
     2
  0
CIRCLE
  5
3773
330
18
100
AcDbEntity
  8
1
  6
Continuous
100
AcDbCircle
 10
1512.500003978924
 20
1799.999991613413
 30
0.0
 40
37.5
  0
TEXT
  5
3774
330
18
100
AcDbEntity
  8
1
  6
Continuous
100
AcDbText
 10
1500.000001899141
 20
1779.99999285548
 30
0.0
 40
40.0
  1
1
 41
0.7
  7
M7
 11
1500.000001899141
 21
1799.99999285548
 31
0.0
100
AcDbText
 73
     2
  0
CIRCLE
  5
3775
330
18
100
AcDbEntity
  8
1
  6
Continuous
100
AcDbCircle
 10
1512.500003978924
 20
2199.999991613413
 30
0.0
 40
37.5
  0
TEXT
  5
3776
330
18
100
AcDbEntity
  8
1
  6
Continuous
100
AcDbText
 10
1500.000001899141
 20
2179.99999285548
 30
0.0
 40
40.0
  1
4
 41
0.7
  7
M7
 11
1500.000001899141
 21
2199.99999285548
 31
0.0
100
AcDbText
 73
     2
  0
CIRCLE
  5
3777
330
18
100
AcDbEntity
  8
1
  6
Continuous
100
AcDbCircle
 10
1512.500003978924
 20
2099.999991613413
 30
0.0
 40
37.5
  0
CIRCLE
  5
3778
330
18
100
AcDbEntity
  8
1
  6
Continuous
100
AcDbCircle
 10
1512.500003978924
 20
1999.999991613412
 30
0.0
 40
37.5
  0
TEXT
  5
3779
330
18
100
AcDbEntity
  8
1
  6
Continuous
100
AcDbText
 10
1500.000001899141
 20
1979.99999285548
 30
0.0
 40
40.0
  1
6
 41
0.7
  7
M7
 11
1500.000001899141
 21
1999.99999285548
 31
0.0
100
AcDbText
 73
     2
  0
TEXT
  5
377A
330
18
100
AcDbEntity
  8
1
  6
Continuous
100
AcDbText
 10
1500.000001899141
 20
2079.99999285548
 30
0.0
 40
40.0
  1
5
 41
0.7
  7
M7
 11
1500.000001899141
 21
2099.99999285548
 31
0.0
100
AcDbText
 73
     2
  0
CIRCLE
  5
377B
330
18
100
AcDbEntity
  8
1
  6
Continuous
100
AcDbCircle
 10
1512.500003978924
 20
2299.999991613412
 30
0.0
 40
37.5
  0
TEXT
  5
377C
330
18
100
AcDbEntity
  8
1
  6
Continuous
100
AcDbText
 10
1500.000001899141
 20
2279.999992855481
 30
0.0
 40
40.0
  1
3
 41
0.7
  7
M7
 11
1500.000001899141
 21
2299.99999285548
 31
0.0
100
AcDbText
 73
     2
  0
TEXT
  5
377D
330
18
100
AcDbEntity
  8
1
  6
Continuous
100
AcDbText
 10
924.9999979202167
 20
2655.000001242068
 30
0.0
 40
40.0
  1
結線
 41
0.7
  7
M7
 11
924.9999979202167
 21
2675.000001242068
 31
0.0
100
AcDbText
 73
     2
  0
LINE
  5
377E
330
18
100
AcDbEntity
  8
1
  6
Continuous
100
AcDbLine
 10
1250.0
 20
2500.0
 30
0.0
 11
1400.0
 21
2500.0
 31
0.0
  0
CIRCLE
  5
377F
330
18
100
AcDbEntity
  8
1
  6
Continuous
100
AcDbCircle
 10
1512.500003978924
 20
2499.999991613413
 30
0.0
 40
37.5
  0
TEXT
  5
3780
330
18
100
AcDbEntity
  8
1
  6
Continuous
100
AcDbText
 10
1500.000001899141
 20
2479.99999285548
 30
0.0
 40
40.0
  1
1
 41
0.7
  7
M7
 11
1500.000001899141
 21
2499.99999285548
 31
0.0
100
AcDbText
 73
     2
  0
TEXT
  5
3781
330
18
100
AcDbEntity
  8
1
  6
Continuous
100
AcDbText
 10
1450.000001899141
 20
2579.99999285548
 30
0.0
 40
40.0
  1
回路番号
 41
0.7
  7
M7
 11
1450.000001899141
 21
2599.99999285548
 31
0.0
100
AcDbText
 73
     2
  0
TEXT
  5
3782
330
18
100
AcDbEntity
  8
1
  6
Continuous
100
AcDbText
 10
1775.000001899141
 20
2479.99999285548
 30
0.0
 40
40.0
  1
コンセント
 41
0.7
  7
M7
 11
1775.000001899141
 21
2499.99999285548
 31
0.0
100
AcDbText
 73
     2
  0
TEXT
  5
3783
330
18
100
AcDbEntity
  8
1
  6
Continuous
100
AcDbText
 10
1787.500001899141
 20
2579.99999285548
 30
0.0
 40
40.0
  1
負荷名称
 41
0.7
  7
M7
 11
1787.500001899141
 21
2599.99999285548
 31
0.0
100
AcDbText
 73
     2
  0
TEXT
  5
3784
330
18
100
AcDbEntity
  8
1
  6
Continuous
100
AcDbText
 10
1875.000001899141
 20
2679.99999285548
 30
0.0
 40
40.0
  1
分岐回路
 41
0.7
  7
M7
 11
1875.000001899141
 21
2699.99999285548
 31
0.0
100
AcDbText
 73
     2
  0
LINE
  5
3785
330
18
100
AcDbEntity
  8
1
  6
Continuous
100
AcDbLine
 10
4000.0
 20
1400.0
 30
0.0
 11
4000.0
 21
1500.0
 31
0.0
  0
LINE
  5
3786
330
18
100
AcDbEntity
  8
1
  6
Continuous
100
AcDbLine
 10
3175.0
 20
1500.0
 30
0.0
 11
3175.0
 21
1400.0
 31
0.0
  0
LINE
  5
3787
330
18
100
AcDbEntity
  8
1
  6
Continuous
100
AcDbLine
 10
2850.0
 20
1500.0
 30
0.0
 11
2850.0
 21
1400.0
 31
0.0
  0
LINE
  5
3788
330
18
100
AcDbEntity
  8
1
  6
Continuous
100
AcDbLine
 10
2750.0
 20
2750.0
 30
0.0
 11
2750.0
 21
1250.0
 31
0.0
  0
LINE
  5
3789
330
18
100
AcDbEntity
  8
1
  6
Continuous
100
AcDbLine
 10
2300.000003978925
 20
2649.999991613412
 30
0.0
 11
2300.000003978925
 21
1249.999991613413
 31
0.0
  0
TEXT
  5
378A
330
18
100
AcDbEntity
  8
1
  6
Continuous
100
AcDbText
 10
2899.999991999055
 20
580.0000032496146
 30
0.0
 40
40.0
  1
のとれたものとすること。(同一メーカーが望ましい)
 41
0.7
  7
M7
 11
2899.999991999055
 21
600.0000032496146
 31
0.0
100
AcDbText
 73
     2
  0
TEXT
  5
378B
330
18
100
AcDbEntity
  8
1
  6
Continuous
100
AcDbText
 10
2899.999991999055
 20
630.0000032496146
 30
0.0
 40
40.0
  1
3.SPDは上位のSPDとJIS C 5381-12によるエネルギー協調
 41
0.7
  7
M7
 11
2899.999991999055
 21
650.0000032496146
 31
0.0
100
AcDbText
 73
     2
  0
TEXT
  5
378C
330
18
100
AcDbEntity
  8
1
  6
Continuous
100
AcDbText
 10
2899.999991999055
 20
692.5000032496146
 30
0.0
 40
40.0
  1
相間にSPD、中性相と接地間にギャップを接続する)
 41
0.7
  7
M7
 11
2899.999991999055
 21
712.5000032496146
 31
0.0
100
AcDbText
 73
     2
  0
TEXT
  5
378D
330
18
100
AcDbEntity
  8
1
  6
Continuous
100
AcDbText
 10
2924.999991999055
 20
855.0000032496145
 30
0.0
 40
40.0
  1
別系統など)は各接地に対してSPDを設置すること
 41
0.7
  7
M7
 11
2924.999991999055
 21
875.0000032496146
 31
0.0
100
AcDbText
 73
     2
  0
TEXT
  5
378E
330
18
100
AcDbEntity
  8
1
  6
Continuous
100
AcDbText
 10
2899.999991999055
 20
392.5000032496145
 30
0.0
 40
40.0
  1
6.SPD回路はメインブレーカ一次側に設置すること。
 41
0.7
  7
M7
 11
2899.999991999055
 21
412.5000032496145
 31
0.0
100
AcDbText
 73
     2
  0
TEXT
  5
378F
330
18
100
AcDbEntity
  8
1
  6
Continuous
100
AcDbText
 10
2899.999991999055
 20
517.5000032496146
 30
0.0
 40
40.0
  1
4.SPD回路の配線太さは16sq以上とすること。
 41
0.7
  7
M7
 11
2899.999991999055
 21
537.5000032496145
 31
0.0
100
AcDbText
 73
     2
  0
TEXT
  5
3790
330
18
100
AcDbEntity
  8
1
  6
Continuous
100
AcDbText
 10
2899.999991999055
 20
742.5000032496146
 30
0.0
 40
40.0
  1
図B.2による結線をすること。(感電保護を確保するため充電相と中性
 41
0.7
  7
M7
 11
2899.999991999055
 21
762.5000032496146
 31
0.0
100
AcDbText
 73
     2
  0
TEXT
  5
3791
330
18
100
AcDbEntity
  8
1
  6
Continuous
100
AcDbText
 10
2899.999991999055
 20
455.0000032496146
 30
0.0
 40
40.0
  1
5.SPD回路の配線距離は極力短くすること。(推奨0.5m以下)
 41
0.7
  7
M7
 11
2899.999991999055
 21
475.0000032496145
 31
0.0
100
AcDbText
 73
     2
  0
TEXT
  5
3792
330
18
100
AcDbEntity
  8
1
  6
Continuous
100
AcDbText
 10
2899.999991999055
 20
792.5000032496146
 30
0.0
 40
40.0
  1
2.JIS C 0364-5-534 TT系統におけるサージ保護装置の施設
 41
0.7
  7
M7
 11
2899.999991999055
 21
812.5000032496146
 31
0.0
100
AcDbText
 73
     2
  0
LWPOLYLINE
  5
3793
330
18
100
AcDbEntity
  8
1
  6
Continuous
100
AcDbPolyline
 90
        4
 70
     1
 43
0.0
 10
2849.999991999055
 20
1000.000003249614
 10
3999.999991999055
 20
1000.000003249614
 10
3999.999991999055
 20
350.0000032496145
 10
2849.999991999055
 20
350.0000032496145
  0
TEXT
  5
3794
330
18
100
AcDbEntity
  8
1
  6
Continuous
100
AcDbText
 10
2899.999991999055
 20
905.0000032496145
 30
0.0
 40
40.0
  1
1.各種接地が共通化されていない場合(MCCBとELCB用接地が
 41
0.7
  7
M7
 11
2899.999991999055
 21
925.0000032496146
 31
0.0
100
AcDbText
 73
     2
  0
TEXT
  5
3795
330
18
100
AcDbEntity
  8
1
  6
Continuous
100
AcDbText
 10
3200.000003368433
 20
1225.000000687071
 30
0.0
 40
40.0
  1
SPD故障表示、故障出力接点を有すること
 41
0.7
  7
M7
 11
3200.000003368433
 21
1245.000000687071
 31
0.0
100
AcDbText
 73
     2
  0
TEXT
  5
3796
330
18
100
AcDbEntity
  8
1
  6
Continuous
100
AcDbText
 10
3200.000003368433
 20
1425.000000687071
 30
0.0
 40
40.0
  1
1.5kV(25kA(10/350μs)時の値)
 41
0.7
  7
M7
 11
3200.000003368433
 21
1445.000000687071
 31
0.0
100
AcDbText
 73
     2
  0
TEXT
  5
3797
330
18
100
AcDbEntity
  8
1
  6
Continuous
100
AcDbText
 10
3200.000003368433
 20
1125.000000687071
 30
0.0
 40
40.0
  1
3P225AF225AT
 41
0.7
  7
M7
 11
3200.000003368433
 21
1145.000000687071
 31
0.0
100
AcDbText
 73
     2
  0
LINE
  5
3798
330
18
100
AcDbEntity
  8
1
  6
Continuous
100
AcDbLine
 10
2850.0
 20
1100.0
 30
0.0
 11
4000.0
 21
1100.0
 31
0.0
  0
LINE
  5
3799
330
18
100
AcDbEntity
  8
1
  6
Continuous
100
AcDbLine
 10
2850.0
 20
1300.0
 30
0.0
 11
4000.0
 21
1300.0
 31
0.0
  0
LINE
  5
379A
330
18
100
AcDbEntity
  8
1
  6
Continuous
100
AcDbLine
 10
2850.0
 20
1200.0
 30
0.0
 11
4000.0
 21
1200.0
 31
0.0
  0
LINE
  5
379B
330
18
100
AcDbEntity
  8
1
  6
Continuous
100
AcDbLine
 10
2850.0
 20
1400.0
 30
0.0
 11
4000.0
 21
1400.0
 31
0.0
  0
LWPOLYLINE
  5
379C
330
18
100
AcDbEntity
  8
1
  6
Continuous
100
AcDbPolyline
 90
        4
 70
     1
 43
0.0
 10
2550.000001778125
 20
1000.000006655515
 10
2800.000001778125
 20
1000.000006655515
 10
2800.000001778125
 20
900.0000066555148
 10
2550.000001778125
 20
900.0000066555148
  0
TEXT
  5
379D
330
18
100
AcDbEntity
  8
1
  6
Continuous
100
AcDbText
 10
2599.999997925475
 20
930.0000122738165
 30
0.0
 40
40.0
  1
注意事項
 41
0.7
  7
M7
 11
2599.999997925475
 21
950.0000122738166
 31
0.0
100
AcDbText
 73
     2
  0
TEXT
  5
379E
330
18
100
AcDbEntity
  8
1
  6
Continuous
100
AcDbText
 10
2875.000003368434
 20
1425.000000687071
 30
0.0
 40
40.0
  1
電圧防護レベル
 41
0.7
  7
M7
 11
2875.000003368434
 21
1445.000000687071
 31
0.0
100
AcDbText
 73
     2
  0
TEXT
  5
379F
330
18
100
AcDbEntity
  8
1
  6
Continuous
100
AcDbText
 10
2875.000003368434
 20
1225.000000687071
 30
0.0
 40
40.0
  1
避雷器形式
 41
0.7
  7
M7
 11
2875.000003368434
 21
1245.000000687071
 31
0.0
100
AcDbText
 73
     2
  0
LINE
  5
37A0
330
18
100
AcDbEntity
  8
1
  6
Continuous
100
AcDbLine
 10
2850.0
 20
1300.0
 30
0.0
 11
2850.0
 21
1100.0
 31
0.0
  0
TEXT
  5
37A1
330
18
100
AcDbEntity
  8
1
  6
Continuous
100
AcDbText
 10
2875.000003368434
 20
1125.000000687071
 30
0.0
 40
40.0
  1
保護用MCCB
 41
0.7
  7
M7
 11
2875.000003368434
 21
1145.000000687071
 31
0.0
100
AcDbText
 73
     2
  0
TEXT
  5
37A2
330
18
100
AcDbEntity
  8
1
  6
Continuous
100
AcDbText
 10
2875.000003368434
 20
1325.000000687071
 30
0.0
 40
40.0
  1
続流遮断性能
 41
0.7
  7
M7
 11
2875.000003368434
 21
1345.000000687071
 31
0.0
100
AcDbText
 73
     2
  0
LINE
  5
37A3
330
18
100
AcDbEntity
  8
1
  6
Continuous
100
AcDbLine
 10
2850.0
 20
1400.0
 30
0.0
 11
2850.0
 21
1300.0
 31
0.0
  0
LINE
  5
37A4
330
18
100
AcDbEntity
  8
1
  6
Continuous
100
AcDbLine
 10
3175.0
 20
1300.0
 30
0.0
 11
3175.0
 21
1100.0
 31
0.0
  0
TEXT
  5
37A5
330
18
100
AcDbEntity
  8
1
  6
Continuous
100
AcDbText
 10
3200.000003368433
 20
1325.000000687071
 30
0.0
 40
40.0
  1
50kA
 41
0.7
  7
M7
 11
3200.000003368433
 21
1345.000000687071
 31
0.0
100
AcDbText
 73
     2
  0
LINE
  5
37A6
330
18
100
AcDbEntity
  8
1
  6
Continuous
100
AcDbLine
 10
3175.0
 20
1400.0
 30
0.0
 11
3175.0
 21
1300.0
 31
0.0
  0
LINE
  5
37A7
330
18
100
AcDbEntity
  8
1
  6
Continuous
100
AcDbLine
 10
4000.0
 20
1100.0
 30
0.0
 11
4000.0
 21
1300.0
 31
0.0
  0
LINE
  5
37A8
330
18
100
AcDbEntity
  8
1
  6
Continuous
100
AcDbLine
 10
4000.0
 20
1300.0
 30
0.0
 11
4000.0
 21
1400.0
 31
0.0
  0
TEXT
  5
37A9
330
18
100
AcDbEntity
  8
1
  6
Continuous
100
AcDbText
 10
3200.000003368433
 20
1825.000000687071
 30
0.0
 40
40.0
  1
デーンベンチルＭＴＴ２５５ＦＭ
 41
0.7
  7
M7
 11
3200.000003368433
 21
1845.000000687071
 31
0.0
100
AcDbText
 73
     2
  0
TEXT
  5
37AA
330
18
100
AcDbEntity
  8
1
  6
Continuous
100
AcDbText
 10
3200.000003368433
 20
1525.000000687071
 30
0.0
 40
40.0
  1
25kA/1線(10/350μs)
 41
0.7
  7
M7
 11
3200.000003368433
 21
1545.000000687071
 31
0.0
100
AcDbText
 73
     2
  0
TEXT
  5
37AB
330
18
100
AcDbEntity
  8
1
  6
Continuous
100
AcDbText
 10
3200.000003368433
 20
1725.000000687071
 30
0.0
 40
40.0
  1
火花ギャップ+酸化亜鉛素子
 41
0.7
  7
M7
 11
3200.000003368433
 21
1745.000000687071
 31
0.0
100
AcDbText
 73
     2
  0
LWPOLYLINE
  5
37AC
330
18
100
AcDbEntity
  8
1
  6
Continuous
100
AcDbPolyline
 90
        4
 70
     1
 43
0.0
 10
3399.999997923705
 20
2575.000004384927
 10
3799.999997923705
 20
2575.000004384927
 10
3799.999997923705
 20
2225.000004384927
 10
3399.999997923705
 20
2225.000004384927
  0
TEXT
  5
37AD
330
18
100
AcDbEntity
  8
1
  6
Continuous
100
AcDbText
 10
3224.999998486887
 20
2000.000001252435
 30
0.0
 40
40.0
  1
等電位ボンディング
 41
0.7
  7
M7
 72
     1
 11
3372.466665153553
 21
2020.000001252435
 31
0.0
100
AcDbText
 73
     2
  0
TEXT
  5
37AE
330
18
100
AcDbEntity
  8
1
  6
Continuous
100
AcDbText
 10
3225.93333182022
 20
1950.000001252436
 30
0.0
 40
40.0
  1
又は他のアレスタへ
 41
0.7
  7
M7
 72
     1
 11
3372.466665153553
 21
1970.000001252436
 31
0.0
100
AcDbText
 73
     2
  0
LINE
  5
37AF
330
18
100
AcDbEntity
  8
1
  6
Continuous
100
AcDbLine
 10
3399.999997923705
 20
2050.000004384926
 30
0.0
 11
3499.999997923705
 21
2050.000004384926
 31
0.0
  0
LINE
  5
37B0
330
18
100
AcDbEntity
  8
1
  6
Continuous
 62
     3
100
AcDbLine
 10
3399.999997923705
 20
2050.000004384926
 30
0.0
 11
3428.977772712377
 21
2057.764575738002
 31
0.0
  0
TEXT
  5
37B1
330
18
100
AcDbEntity
  8
1
  6
Continuous
100
AcDbText
 10
3407.018076323604
 20
2581.426616274245
 30
0.0
 40
25.0
  1
L1
 41
0.7
  7
M7
 72
     4
 11
3420.143076323604
 21
2593.926616274245
 31
0.0
100
AcDbText
  0
LINE
  5
37B2
330
18
100
AcDbEntity
  8
1
  6
Continuous
100
AcDbLine
 10
4000.0
 20
1900.0
 30
0.0
 11
2850.0
 21
1900.0
 31
0.0
  0
LINE
  5
37B3
330
18
100
AcDbEntity
  8
1
  6
Continuous
100
AcDbLine
 10
2850.0
 20
1700.0
 30
0.0
 11
4000.0
 21
1700.0
 31
0.0
  0
LINE
  5
37B4
330
18
100
AcDbEntity
  8
1
  6
Continuous
100
AcDbLine
 10
2850.0
 20
1600.0
 30
0.0
 11
4000.0
 21
1600.0
 31
0.0
  0
LINE
  5
37B5
330
18
100
AcDbEntity
  8
1
  6
Continuous
100
AcDbLine
 10
4000.0
 20
1800.0
 30
0.0
 11
2850.0
 21
1800.0
 31
0.0
  0
LINE
  5
37B6
330
18
100
AcDbEntity
  8
1
  6
Continuous
100
AcDbLine
 10
2850.0
 20
1500.0
 30
0.0
 11
4000.0
 21
1500.0
 31
0.0
  0
LINE
  5
37B7
330
18
100
AcDbEntity
  8
1
  6
Continuous
100
AcDbLine
 10
2850.0
 20
1900.0
 30
0.0
 11
2850.0
 21
1600.0
 31
0.0
  0
TEXT
  5
37B8
330
18
100
AcDbEntity
  8
1
  6
Continuous
100
AcDbText
 10
2875.000003368434
 20
1625.000000687071
 30
0.0
 40
40.0
  1
SPDクラス
 41
0.7
  7
M7
 11
2875.000003368434
 21
1645.000000687071
 31
0.0
100
AcDbText
 73
     2
  0
TEXT
  5
37B9
330
18
100
AcDbEntity
  8
1
  6
Continuous
100
AcDbText
 10
2875.000003368434
 20
1525.000000687071
 30
0.0
 40
40.0
  1
公称放電電流
 41
0.7
  7
M7
 11
2875.000003368434
 21
1545.000000687071
 31
0.0
100
AcDbText
 73
     2
  0
LINE
  5
37BA
330
18
100
AcDbEntity
  8
1
  6
Continuous
100
AcDbLine
 10
2850.0
 20
1600.0
 30
0.0
 11
2850.0
 21
1500.0
 31
0.0
  0
TEXT
  5
37BB
330
18
100
AcDbEntity
  8
1
  6
Continuous
100
AcDbText
 10
2875.000003368434
 20
1825.000000687071
 30
0.0
 40
40.0
  1
参考型式
 41
0.7
  7
M7
 11
2875.000003368434
 21
1845.000000687071
 31
0.0
100
AcDbText
 73
     2
  0
TEXT
  5
37BC
330
18
100
AcDbEntity
  8
1
  6
Continuous
100
AcDbText
 10
2875.000003368434
 20
1725.000000687071
 30
0.0
 40
40.0
  1
避雷器方式
 41
0.7
  7
M7
 11
2875.000003368434
 21
1745.000000687071
 31
0.0
100
AcDbText
 73
     2
  0
LINE
  5
37BD
330
18
100
AcDbEntity
  8
1
  6
Continuous
100
AcDbLine
 10
3175.0
 20
1900.0
 30
0.0
 11
3175.0
 21
1600.0
 31
0.0
  0
TEXT
  5
37BE
330
18
100
AcDbEntity
  8
1
  6
Continuous
100
AcDbText
 10
3200.000003368433
 20
1625.000000687071
 30
0.0
 40
40.0
  1
クラス1+2
 41
0.7
  7
M7
 11
3200.000003368433
 21
1645.000000687071
 31
0.0
100
AcDbText
 73
     2
  0
LINE
  5
37BF
330
18
100
AcDbEntity
  8
1
  6
Continuous
100
AcDbLine
 10
3175.0
 20
1600.0
 30
0.0
 11
3175.0
 21
1500.0
 31
0.0
  0
TEXT
  5
37C0
330
18
100
AcDbEntity
  8
1
  6
Continuous
100
AcDbText
 10
2125.000001899141
 20
2479.99999285548
 30
0.0
 40
40.0
  1
1000
 41
0.7
  7
M7
 11
2125.000001899141
 21
2499.99999285548
 31
0.0
100
AcDbText
 73
     2
  0
TEXT
  5
37C1
330
18
100
AcDbEntity
  8
1
  6
Continuous
100
AcDbText
 10
2487.500001899141
 20
2579.99999285548
 30
0.0
 40
40.0
  1
備考
 41
0.7
  7
M7
 11
2487.500001899141
 21
2599.99999285548
 31
0.0
100
AcDbText
 73
     2
  0
TEXT
  5
37C2
330
18
100
AcDbEntity
  8
1
  6
Continuous
100
AcDbText
 10
3002.415414969406
 20
2704.999999815571
 30
0.0
 40
40.0
  1
SPD取付に伴う追加部
 41
0.7
  7
M7
 11
3002.415414969406
 21
2724.999999815571
 31
0.0
100
AcDbText
 73
     2
  0
LWPOLYLINE
  5
37C3
330
18
100
AcDbEntity
  8
1
  6
Continuous
100
AcDbPolyline
 90
        4
 70
     1
 43
0.0
 10
2824.999997923706
 20
2762.500004384927
 10
2949.999997923706
 20
2762.500004384927
 10
2949.999997923706
 20
2687.500004384927
 10
2824.999997923706
 20
2687.500004384927
  0
LINE
  5
37C4
330
18
100
AcDbEntity
  8
1
  6
DASHDOT
100
AcDbLine
 10
2799.999997923706
 20
2675.000004384926
 30
0.0
 11
2974.999997923705
 21
2675.000004384926
 31
0.0
  0
TEXT
  5
37C5
330
18
100
AcDbEntity
  8
1
  6
Continuous
100
AcDbText
 10
2849.999992305711
 20
2705.000017182192
 30
0.0
 40
40.0
  1
SPD
 41
0.7
  7
M7
 11
2849.999992305711
 21
2725.000017182192
 31
0.0
100
AcDbText
 73
     2
  0
LINE
  5
37C6
330
18
100
AcDbEntity
  8
1
  6
DASHDOT
100
AcDbLine
 10
2974.999997923705
 20
2775.000004384926
 30
0.0
 11
2799.999997923706
 21
2775.000004384926
 31
0.0
  0
LINE
  5
37C7
330
18
100
AcDbEntity
  8
1
  6
DASHDOT
100
AcDbLine
 10
2799.999997923706
 20
2775.000004384926
 30
0.0
 11
2799.999997923706
 21
2675.000004384926
 31
0.0
  0
LINE
  5
37C8
330
18
100
AcDbEntity
  8
1
  6
DASHDOT
100
AcDbLine
 10
2974.999997923705
 20
2675.000004384926
 30
0.0
 11
2974.999997923705
 21
2775.000004384926
 31
0.0
  0
LINE
  5
37C9
330
18
100
AcDbEntity
  8
1
100
AcDbLine
 10
3549.99999893287
 20
2367.500001930728
 30
0.0
 11
3549.999997923705
 21
2425.000004384926
 31
0.0
  0
LINE
  5
37CA
330
18
100
AcDbEntity
  8
1
  6
Continuous
100
AcDbLine
 10
4000.0
 20
1600.0
 30
0.0
 11
4000.0
 21
1900.0
 31
0.0
  0
LINE
  5
37CB
330
18
100
AcDbEntity
  8
1
  6
Continuous
100
AcDbLine
 10
4000.0
 20
1500.0
 30
0.0
 11
4000.0
 21
1600.0
 31
0.0
  0
TEXT
  5
37CC
330
18
100
AcDbEntity
  8
1
  6
Continuous
100
AcDbText
 10
3656.090474817589
 20
1999.763919352453
 30
0.0
 40
40.0
  1
系統分電盤へ
 41
0.7
  7
M7
 72
     1
 11
3752.223808150922
 21
2019.763919352453
 31
0.0
100
AcDbText
 73
     2
  0
LINE
  5
37CD
330
18
100
AcDbEntity
  8
1
  6
Continuous
100
AcDbLine
 10
3749.999997923705
 20
2050.000004384926
 30
0.0
 11
3649.999997923705
 21
2050.000004384926
 31
0.0
  0
LINE
  5
37CE
330
18
100
AcDbEntity
  8
1
  6
Continuous
 62
     3
100
AcDbLine
 10
3749.999997923705
 20
2050.000004384926
 30
0.0
 11
3721.022223135033
 21
2057.764575738002
 31
0.0
  0
LINE
  5
37CF
330
18
100
AcDbEntity
  8
1
  6
Continuous
100
AcDbLine
 10
3649.999996096327
 20
2224.99999853017
 30
0.0
 11
3649.999996096328
 21
2149.99999853017
 31
0.0
  0
LINE
  5
37D0
330
18
100
AcDbEntity
  8
1
  6
Continuous
100
AcDbLine
 10
3549.999996096327
 20
2224.99999853017
 30
0.0
 11
3549.999996096328
 21
2149.99999853017
 31
0.0
  0
LINE
  5
37D1
330
18
100
AcDbEntity
  8
1
  6
Continuous
 62
     3
100
AcDbLine
 10
3499.999997923705
 20
2140.00000622302
 30
0.0
 11
3499.999997923705
 21
2050.000004384926
 31
0.0
  0
LWPOLYLINE
  5
37D2
330
18
100
AcDbEntity
  8
1
  6
Continuous
100
AcDbPolyline
 90
        4
 70
     1
 43
0.0
 10
3474.999996096327
 20
2174.999996150479
 10
3574.999996096327
 20
2174.999996150479
 10
3574.999996096327
 20
2124.999996150479
 10
3474.999996096327
 20
2124.999996150479
  0
CIRCLE
  5
37D3
330
18
100
AcDbEntity
  8
1
  6
Continuous
100
AcDbCircle
 10
3499.999996096327
 20
2149.999996150479
 30
0.0
 40
10.0
  0
CIRCLE
  5
37D4
330
18
100
AcDbEntity
  8
1
  6
Continuous
100
AcDbCircle
 10
3549.999996096327
 20
2149.999996150479
 30
0.0
 40
10.0
  0
LINE
  5
37D5
330
18
100
AcDbEntity
  8
1
  6
Continuous
 62
     3
100
AcDbLine
 10
3649.999997923705
 20
2140.00000622302
 30
0.0
 11
3649.999997923705
 21
2055.000004384927
 31
0.0
  0
LWPOLYLINE
  5
37D6
330
18
100
AcDbEntity
  8
1
  6
Continuous
100
AcDbPolyline
 90
        4
 70
     1
 43
0.0
 10
3624.999997408211
 20
2175.00000622302
 10
3724.999997408211
 20
2175.00000622302
 10
3724.999997408211
 20
2125.00000622302
 10
3624.999997408211
 20
2125.00000622302
  0
CIRCLE
  5
37D7
330
18
100
AcDbEntity
  8
1
  6
Continuous
100
AcDbCircle
 10
3649.999997408211
 20
2150.00000622302
 30
0.0
 40
10.0
  0
CIRCLE
  5
37D8
330
18
100
AcDbEntity
  8
1
  6
Continuous
100
AcDbCircle
 10
3699.999997408211
 20
2150.00000622302
 30
0.0
 40
10.0
  0
CIRCLE
  5
37D9
330
18
100
AcDbEntity
  8
1
  6
DOT
100
AcDbCircle
 10
3549.999999437454
 20
2350.000000703628
 30
0.0
 40
37.5
  0
LINE
  5
37DA
330
18
100
AcDbEntity
  8
1
  6
Continuous
100
AcDbLine
 10
3549.999997923705
 20
2275.000004384926
 30
0.0
 11
3649.999997923705
 21
2275.000004384926
 31
0.0
  0
LINE
  5
37DB
330
18
100
AcDbEntity
  8
1
100
AcDbLine
 10
3549.99999893287
 20
2332.500001930728
 30
0.0
 11
3549.999997923705
 21
2225.000004384927
 31
0.0
  0
INSERT
  5
37DC
330
18
100
AcDbEntity
  8
1
  6
Continuous
100
AcDbBlockReference
  2
AN07
 10
3531.733632412326
 20
2245.014991406896
 30
0.0
 41
0.5
 42
0.5
 43
0.5
  0
CIRCLE
  5
37DD
330
18
100
AcDbEntity
  8
1
  6
Continuous
100
AcDbCircle
 10
3549.999997923705
 20
2225.000004384927
 30
0.0
 40
10.0
  0
LINE
  5
37DE
330
18
100
AcDbEntity
  8
1
  6
Continuous
100
AcDbLine
 10
3531.733632412326
 20
2245.014991406896
 30
0.0
 11
3531.733632412326
 21
2260.014991406896
 31
0.0
  0
CIRCLE
  5
37DF
330
18
100
AcDbEntity
  8
1
  6
Continuous
100
AcDbCircle
 10
3549.999997923705
 20
2275.000004384926
 30
0.0
 40
5.0
  0
HATCH
  5
37E0
330
18
100
AcDbEntity
  8
1
  6
Continuous
100
AcDbHatch
 10
0.0
 20
0.0
 30
0.0
210
0.0
220
0.0
230
1.0
  2
ANSI31
 70
     0
 71
     0
 91
        3
 92
        7
 72
     0
 73
     1
 93
        4
 10
3564.999999437453
 20
2365.000000703628
 10
3564.999999437453
 20
2376.250000703628
 10
3534.999999437454
 20
2376.250000703628
 10
3534.999999437452
 20
2365.000000703628
 97
        0
 92
        7
 72
     0
 73
     1
 93
        4
 10
3576.249999437453
 20
2344.375000703629
 10
3576.249999437453
 20
2355.625000703628
 10
3523.749999437454
 20
2355.625000703628
 10
3523.749999437454
 20
2344.375000703629
 97
        0
 92
        7
 72
     0
 73
     1
 93
        4
 10
3534.999999437454
 20
2335.000000703629
 10
3534.999999437454
 20
2323.750000703629
 10
3564.999999437453
 20
2323.750000703629
 10
3564.999999437453
 20
2335.000000703629
 97
        0
 75
     0
 76
     1
 52
0.0
 41
7.5
 77
     0
 78
     1
 53
45.0
 43
2649.999999437454
 44
1412.500000703628
 45
-0.6629126073623883
 46
0.6629126073623884
 79
     0
 47
0.7403024504741433
 98
        3
 10
3557.499999437453
 20
2368.750000703629
 10
3561.249999437453
 20
2350.000000703628
 10
3553.749999437454
 20
2331.250000703628
  0
LWPOLYLINE
  5
37E1
330
18
100
AcDbEntity
  8
1
  6
Continuous
100
AcDbPolyline
 90
        4
 70
     1
 43
0.0
 10
3523.749999437454
 20
2355.625000703628
 10
3576.249999437453
 20
2355.625000703628
 10
3576.249999437453
 20
2344.375000703629
 10
3523.749999437454
 20
2344.375000703629
  0
LWPOLYLINE
  5
37E2
330
18
100
AcDbEntity
  8
1
  6
Continuous
100
AcDbPolyline
 90
        4
 70
     0
 43
0.0
 10
3534.999999437454
 20
2344.375000703629
 10
3534.999999437454
 20
2323.750000703629
 10
3564.999999437453
 20
2323.750000703629
 10
3564.999999437453
 20
2344.375000703629
  0
LINE
  5
37E3
330
18
100
AcDbEntity
  8
1
  6
Continuous
100
AcDbLine
 10
3534.999999437454
 20
2335.000000703629
 30
0.0
 11
3564.999999437453
 21
2335.000000703629
 31
0.0
  0
LINE
  5
37E4
330
18
100
AcDbEntity
  8
1
  6
Continuous
100
AcDbLine
 10
3534.999999437454
 20
2365.000000703628
 30
0.0
 11
3564.999999437453
 21
2365.000000703628
 31
0.0
  0
LWPOLYLINE
  5
37E5
330
18
100
AcDbEntity
  8
1
  6
Continuous
100
AcDbPolyline
 90
        4
 70
     0
 43
0.0
 10
3564.999999437453
 20
2355.625000703628
 10
3564.999999437453
 20
2376.250000703628
 10
3534.999999437454
 20
2376.250000703628
 10
3534.999999437454
 20
2355.625000703628
  0
CIRCLE
  5
37E6
330
18
100
AcDbEntity
  8
1
  6
Continuous
100
AcDbCircle
 10
3649.999997923705
 20
2225.000004384927
 30
0.0
 40
10.0
  0
TEXT
  5
37E7
330
18
100
AcDbEntity
  8
1
  6
Continuous
100
AcDbText
 10
3605.587180650015
 20
2232.347651605466
 30
0.0
 40
25.0
  1
PE
 41
0.7
  7
M7
 72
     4
 11
3620.170513983348
 21
2244.847651605466
 31
0.0
100
AcDbText
  0
LINE
  5
37E8
330
18
100
AcDbEntity
  8
1
  6
Continuous
100
AcDbLine
 10
3649.999997923705
 20
2275.000004384926
 30
0.0
 11
3649.999997923705
 21
2225.000004384927
 31
0.0
  0
LINE
  5
37E9
330
18
100
AcDbEntity
  8
1
  6
Continuous
100
AcDbLine
 10
3749.999997923705
 20
2625.000004384927
 30
0.0
 11
3549.999997923705
 21
2625.000004384927
 31
0.0
  0
CIRCLE
  5
37EA
330
18
100
AcDbEntity
  8
1
  6
Continuous
100
AcDbCircle
 10
3749.999997923705
 20
2575.000004384927
 30
0.0
 40
10.0
  0
LINE
  5
37EB
330
18
100
AcDbEntity
  8
1
  6
Continuous
100
AcDbLine
 10
3449.999997923705
 20
2425.000004384926
 30
0.0
 11
3749.999997923705
 21
2425.000004384926
 31
0.0
  0
LINE
  5
37EC
330
18
100
AcDbEntity
  8
1
  6
Continuous
100
AcDbLine
 10
3549.999997923705
 20
2625.000004384927
 30
0.0
 11
3549.999997923705
 21
2675.000004384926
 31
0.0
  0
LINE
  5
37ED
330
18
100
AcDbEntity
  8
1
100
AcDbLine
 10
3649.99999893287
 20
2517.500001930728
 30
0.0
 11
3649.999997923705
 21
2675.000004384926
 31
0.0
  0
LINE
  5
37EE
330
18
100
AcDbEntity
  8
1
100
AcDbLine
 10
3449.99999893287
 20
2517.500001930728
 30
0.0
 11
3449.999997923705
 21
2675.000004384926
 31
0.0
  0
CIRCLE
  5
37EF
330
18
100
AcDbEntity
  8
1
  6
DOT
100
AcDbCircle
 10
3449.999999437454
 20
2500.000000703629
 30
0.0
 40
37.5
  0
LINE
  5
37F0
330
18
100
AcDbEntity
  8
1
100
AcDbLine
 10
3449.99999893287
 20
2482.500001930728
 30
0.0
 11
3449.999997923705
 21
2425.000004384926
 31
0.0
  0
LWPOLYLINE
  5
37F1
330
18
100
AcDbEntity
  8
1
  6
Continuous
100
AcDbPolyline
 90
        4
 70
     0
 43
0.0
 10
3464.999999437454
 20
2505.625000703628
 10
3464.999999437454
 20
2526.250000703628
 10
3434.999999437454
 20
2526.250000703628
 10
3434.999999437454
 20
2505.625000703628
  0
LINE
  5
37F2
330
18
100
AcDbEntity
  8
1
  6
Continuous
100
AcDbLine
 10
3434.999999437454
 20
2515.000000703628
 30
0.0
 11
3464.999999437454
 21
2515.000000703628
 31
0.0
  0
LINE
  5
37F3
330
18
100
AcDbEntity
  8
1
  6
Continuous
100
AcDbLine
 10
3434.999999437454
 20
2485.000000703629
 30
0.0
 11
3464.999999437454
 21
2485.000000703629
 31
0.0
  0
LWPOLYLINE
  5
37F4
330
18
100
AcDbEntity
  8
1
  6
Continuous
100
AcDbPolyline
 90
        4
 70
     0
 43
0.0
 10
3434.999999437454
 20
2494.375000703628
 10
3434.999999437454
 20
2473.750000703629
 10
3464.999999437454
 20
2473.750000703629
 10
3464.999999437454
 20
2494.375000703628
  0
LWPOLYLINE
  5
37F5
330
18
100
AcDbEntity
  8
1
  6
Continuous
100
AcDbPolyline
 90
        4
 70
     1
 43
0.0
 10
3423.749999437454
 20
2505.625000703628
 10
3476.249999437453
 20
2505.625000703628
 10
3476.249999437453
 20
2494.375000703628
 10
3423.749999437454
 20
2494.375000703628
  0
HATCH
  5
37F6
330
18
100
AcDbEntity
  8
1
  6
Continuous
100
AcDbHatch
 10
0.0
 20
0.0
 30
0.0
210
0.0
220
0.0
230
1.0
  2
ANSI31
 70
     0
 71
     0
 91
        3
 92
        7
 72
     0
 73
     1
 93
        4
 10
3464.999999437454
 20
2515.000000703628
 10
3464.999999437454
 20
2526.250000703628
 10
3434.999999437454
 20
2526.250000703628
 10
3434.999999437453
 20
2515.000000703628
 97
        0
 92
        7
 72
     0
 73
     1
 93
        4
 10
3476.249999437453
 20
2494.375000703628
 10
3476.249999437453
 20
2505.625000703628
 10
3423.749999437454
 20
2505.625000703628
 10
3423.749999437454
 20
2494.375000703628
 97
        0
 92
        7
 72
     0
 73
     1
 93
        4
 10
3434.999999437454
 20
2485.000000703629
 10
3434.999999437454
 20
2473.750000703629
 10
3464.999999437454
 20
2473.750000703629
 10
3464.999999437454
 20
2485.000000703629
 97
        0
 75
     0
 76
     1
 52
0.0
 41
7.5
 77
     0
 78
     1
 53
45.0
 43
2549.999999437454
 44
1562.500000703628
 45
-0.6629126073623883
 46
0.6629126073623884
 79
     0
 47
0.7403024504741433
 98
        3
 10
3457.499999437454
 20
2518.750000703628
 10
3461.249999437454
 20
2500.000000703629
 10
3453.749999437454
 20
2481.250000703628
  0
CIRCLE
  5
37F7
330
18
100
AcDbEntity
  8
1
  6
Continuous
100
AcDbCircle
 10
3549.999997923705
 20
2425.000004384926
 30
0.0
 40
5.0
  0
CIRCLE
  5
37F8
330
18
100
AcDbEntity
  8
1
  6
Continuous
100
AcDbCircle
 10
3449.999997923705
 20
2575.000004384927
 30
0.0
 40
10.0
  0
CIRCLE
  5
37F9
330
18
100
AcDbEntity
  8
1
  6
DOT
100
AcDbCircle
 10
3649.999999437454
 20
2500.000000703629
 30
0.0
 40
37.5
  0
HATCH
  5
37FA
330
18
100
AcDbEntity
  8
1
  6
Continuous
100
AcDbHatch
 10
0.0
 20
0.0
 30
0.0
210
0.0
220
0.0
230
1.0
  2
ANSI31
 70
     0
 71
     0
 91
        3
 92
        7
 72
     0
 73
     1
 93
        4
 10
3664.999999437454
 20
2515.000000703628
 10
3664.999999437454
 20
2526.250000703628
 10
3634.999999437454
 20
2526.250000703628
 10
3634.999999437452
 20
2515.000000703628
 97
        0
 92
        7
 72
     0
 73
     1
 93
        4
 10
3676.249999437454
 20
2494.375000703628
 10
3676.249999437454
 20
2505.625000703628
 10
3623.749999437453
 20
2505.625000703628
 10
3623.749999437453
 20
2494.375000703628
 97
        0
 92
        7
 72
     0
 73
     1
 93
        4
 10
3634.999999437454
 20
2485.000000703629
 10
3634.999999437454
 20
2473.750000703629
 10
3664.999999437454
 20
2473.750000703629
 10
3664.999999437454
 20
2485.000000703629
 97
        0
 75
     0
 76
     1
 52
0.0
 41
7.5
 77
     0
 78
     1
 53
45.0
 43
2749.999999437454
 44
1562.500000703628
 45
-0.6629126073623883
 46
0.6629126073623884
 79
     0
 47
0.7403024504741433
 98
        3
 10
3657.499999437453
 20
2518.750000703628
 10
3661.249999437453
 20
2500.000000703629
 10
3653.749999437454
 20
2481.250000703628
  0
LWPOLYLINE
  5
37FB
330
18
100
AcDbEntity
  8
1
  6
Continuous
100
AcDbPolyline
 90
        4
 70
     1
 43
0.0
 10
3623.749999437453
 20
2505.625000703628
 10
3676.249999437454
 20
2505.625000703628
 10
3676.249999437454
 20
2494.375000703628
 10
3623.749999437453
 20
2494.375000703628
  0
LWPOLYLINE
  5
37FC
330
18
100
AcDbEntity
  8
1
  6
Continuous
100
AcDbPolyline
 90
        4
 70
     0
 43
0.0
 10
3634.999999437454
 20
2494.375000703628
 10
3634.999999437454
 20
2473.750000703629
 10
3664.999999437454
 20
2473.750000703629
 10
3664.999999437454
 20
2494.375000703628
  0
LINE
  5
37FD
330
18
100
AcDbEntity
  8
1
  6
Continuous
100
AcDbLine
 10
3634.999999437454
 20
2485.000000703629
 30
0.0
 11
3664.999999437454
 21
2485.000000703629
 31
0.0
  0
LWPOLYLINE
  5
37FE
330
18
100
AcDbEntity
  8
1
  6
Continuous
100
AcDbPolyline
 90
        4
 70
     0
 43
0.0
 10
3664.999999437454
 20
2505.625000703628
 10
3664.999999437454
 20
2526.250000703628
 10
3634.999999437454
 20
2526.250000703628
 10
3634.999999437454
 20
2505.625000703628
  0
LINE
  5
37FF
330
18
100
AcDbEntity
  8
1
  6
Continuous
100
AcDbLine
 10
3634.999999437454
 20
2515.000000703628
 30
0.0
 11
3664.999999437454
 21
2515.000000703628
 31
0.0
  0
LINE
  5
3800
330
18
100
AcDbEntity
  8
1
100
AcDbLine
 10
3649.99999893287
 20
2482.500001930728
 30
0.0
 11
3649.999997923705
 21
2425.000004384926
 31
0.0
  0
CIRCLE
  5
3801
330
18
100
AcDbEntity
  8
1
  6
Continuous
100
AcDbCircle
 10
3649.999997923705
 20
2425.000004384926
 30
0.0
 40
5.0
  0
CIRCLE
  5
3802
330
18
100
AcDbEntity
  8
1
  6
Continuous
100
AcDbCircle
 10
3649.999997923705
 20
2575.000004384927
 30
0.0
 40
10.0
  0
TEXT
  5
3803
330
18
100
AcDbEntity
  8
1
  6
Continuous
100
AcDbText
 10
3605.55974299027
 20
2581.426616274245
 30
0.0
 40
25.0
  1
L2
 41
0.7
  7
M7
 72
     4
 11
3620.143076323603
 21
2593.926616274245
 31
0.0
100
AcDbText
  0
TEXT
  5
3804
330
18
100
AcDbEntity
  8
1
  6
Continuous
100
AcDbText
 10
3726.80974299027
 20
2581.426616274245
 30
0.0
 40
25.0
  1
N
 41
0.7
  7
M7
 72
     4
 11
3732.643076323604
 21
2593.926616274245
 31
0.0
100
AcDbText
  0
TEXT
  5
3805
330
18
100
AcDbEntity
  8
1
  6
Continuous
100
AcDbText
 10
3474.999995954986
 20
2680.000001474754
 30
0.0
 40
40.0
  1
(接地相)
 41
0.7
  7
M7
 11
3474.999995954986
 21
2700.000001474753
 31
0.0
100
AcDbText
 73
     2
  0
TEXT
  5
3806
330
18
100
AcDbEntity
  8
1
  6
Continuous
100
AcDbText
 10
3499.999995954986
 20
2730.000001474754
 30
0.0
 40
40.0
  1
N
 41
0.7
  7
M7
 11
3499.999995954986
 21
2750.000001474754
 31
0.0
100
AcDbText
 73
     2
  0
TEXT
  5
3807
330
18
100
AcDbEntity
  8
1
  6
Continuous
100
AcDbText
 10
3437.499995954986
 20
2730.000001474754
 30
0.0
 40
40.0
  1
R
 41
0.7
  7
M7
 11
3437.499995954986
 21
2750.000001474754
 31
0.0
100
AcDbText
 73
     2
  0
TEXT
  5
3808
330
18
100
AcDbEntity
  8
1
  6
Continuous
100
AcDbText
 10
3637.499995954986
 20
2730.000001474754
 30
0.0
 40
40.0
  1
T
 41
0.7
  7
M7
 11
3637.499995954986
 21
2750.000001474754
 31
0.0
100
AcDbText
 73
     2
  0
LINE
  5
3809
330
18
100
AcDbEntity
  8
1
100
AcDbLine
 10
3749.999997923705
 20
2575.000004384927
 30
0.0
 11
3749.999997923705
 21
2425.000004384926
 31
0.0
  0
LINE
  5
380A
330
18
100
AcDbEntity
  8
1
  6
Continuous
100
AcDbLine
 10
3749.999997923705
 20
2625.000004384927
 30
0.0
 11
3749.999997923705
 21
2575.000004384927
 31
0.0
  0
LINE
  5
380B
330
18
100
AcDbEntity
  8
1
  6
Continuous
100
AcDbLine
 10
3749.999997923705
 20
2625.000004384927
 30
0.0
 11
3749.999997923705
 21
2625.000004384927
 31
0.0
  0
ENDSEC
  0
SECTION
  2
OBJECTS
  0
DICTIONARY
  5
C
330
0
100
AcDbDictionary
281
     1
  3
ACAD_GROUP
350
D
  3
ACAD_LAYOUT
350
2548
  3
ACAD_MLINESTYLE
350
E
  3
ACAD_PLOTSETTINGS
350
2549
  3
ACAD_PLOTSTYLENAME
350
2546
  3
AcDbVariableDictionary
350
25DC
  0
DICTIONARY
  5
201C
330
2004
100
AcDbDictionary
280
     1
281
     1
  0
DICTIONARY
  5
D
102
{ACAD_REACTORS
330
C
102
}
330
C
100
AcDbDictionary
281
     1
  0
DICTIONARY
  5
2548
102
{ACAD_REACTORS
330
C
102
}
330
C
100
AcDbDictionary
281
     1
  3
Model
350
254A
  3
ﾚｲｱｳﾄ1
350
254B
  0
DICTIONARY
  5
E
102
{ACAD_REACTORS
330
C
102
}
330
C
100
AcDbDictionary
281
     1
  3
STANDARD
350
1B
  0
DICTIONARY
  5
2549
102
{ACAD_REACTORS
330
C
102
}
330
C
100
AcDbDictionary
281
     1
  0
ACDBDICTIONARYWDFLT
  5
2546
102
{ACAD_REACTORS
330
C
102
}
330
C
100
AcDbDictionary
281
     1
  3
Normal
350
2547
100
AcDbDictionaryWithDefault
340
2547
  0
DICTIONARY
  5
25DC
102
{ACAD_REACTORS
330
C
102
}
330
C
100
AcDbDictionary
281
     1
  3
DIMASSOC
350
25DD
  0
LAYOUT
  5
254A
102
{ACAD_REACTORS
330
2548
102
}
330
2548
100
AcDbPlotSettings
  1

  2
iR C5870
  4
A4
  6

 40
5.873749732971191
 41
5.873747825622558
 42
5.873748779296875
 43
5.873748779296875
 44
209.9733276367187
 45
296.9259948730469
 46
0.0
 47
3.04
 48
150.0
 49
50.0
140
4050.0
141
2820.0
142
1.0
143
13.97396097287065
 70
 11956
 72
     1
 73
     1
 74
     4
  7
monochrome.ctb
 75
     0
147
0.0715616711640616
148
-150.0
149
-50.0
100
AcDbLayout
  1
Model
 70
     1
 71
     0
 10
0.0
 20
0.0
 11
12.0
 21
9.0
 12
0.0
 22
0.0
 32
0.0
 14
0.0
 24
0.0
 34
0.0
 15
0.0
 25
0.0
 35
0.0
146
0.0
 13
0.0
 23
0.0
 33
0.0
 16
1.0
 26
0.0
 36
0.0
 17
0.0
 27
1.0
 37
0.0
 76
     0
330
18
  0
LAYOUT
  5
254B
102
{ACAD_REACTORS
330
2548
102
}
330
2548
100
AcDbPlotSettings
  1

  2
\\SEKKEI-SERVER1\CAD-A4[2]
  4

  6

 40
0.0
 41
0.0
 42
0.0
 43
0.0
 44
0.0
 45
0.0
 46
0.0
 47
0.0
 48
0.0
 49
0.0
140
0.0
141
0.0
142
1.0
143
1.0
 70
   688
 72
     0
 73
     0
 74
     5
  7
monochrome.ctb
 75
    16
147
1.0
148
0.0
149
0.0
100
AcDbLayout
  1
ﾚｲｱｳﾄ1
 70
     0
 71
     1
 10
0.0
 20
0.0
 11
12.0
 21
9.0
 12
0.0
 22
0.0
 32
0.0
 14
1.000000000000000E+20
 24
1.000000000000000E+20
 34
1.000000000000000E+20
 15
-1.000000000000000E+20
 25
-1.000000000000000E+20
 35
-1.000000000000000E+20
146
0.0
 13
0.0
 23
0.0
 33
0.0
 16
1.0
 26
0.0
 36
0.0
 17
0.0
 27
1.0
 37
0.0
 76
     0
330
15
  0
MLINESTYLE
  5
1B
102
{ACAD_REACTORS
330
E
102
}
330
E
100
AcDbMlineStyle
  2
STANDARD
 70
     0
  3

 62
     0
 51
90.0
 52
90.0
 71
     2
 49
0.5
 62
   256
  6
BYLAYER
 49
-0.5
 62
   256
  6
BYLAYER
  0
ACDBPLACEHOLDER
  5
2547
102
{ACAD_REACTORS
330
2546
102
}
330
2546
  0
DICTIONARYVAR
  5
25DD
102
{ACAD_REACTORS
330
25DC
102
}
330
25DC
100
DictionaryVariables
280
     0
  1
1
  0
ENDSEC
  0
EOF
