  0
SECTION
  2
HEADER
  9
$ACADVER
  1
AC1015
  9
$ACADMAINTVER
 70
    10
  9
$DWGCODEPAGE
  3
ANSI_932
  9
$INSBASE
 10
0.0
 20
0.0
 30
0.0
  9
$EXTMIN
 10
119.4
 20
49.90000000000009
 30
0.0
  9
$EXTMAX
 10
4050.0
 20
2860.333333333335
 30
0.0
  9
$LIMMIN
 10
0.0
 20
0.0
  9
$LIMMAX
 10
4200.0
 20
2970.0
  9
$ORTHOMODE
 70
     1
  9
$REGENMODE
 70
     1
  9
$FILLMODE
 70
     1
  9
$QTEXTMODE
 70
     0
  9
$MIRRTEXT
 70
     0
  9
$LTSCALE
 40
10.0
  9
$ATTMODE
 70
     1
  9
$TEXTSIZE
 40
25.0
  9
$TRACEWID
 40
0.05
  9
$TEXTSTYLE
  7
M7
  9
$CLAYER
  8
1
  9
$CELTYPE
  6
CONTINUOUS
  9
$CECOLOR
 62
   256
  9
$CELTSCALE
 40
1.0
  9
$DISPSILH
 70
     0
  9
$DIMSCALE
 40
10.0
  9
$DIMASZ
 40
0.8
  9
$DIMEXO
 40
1.0
  9
$DIMDLI
 40
5.0
  9
$DIMRND
 40
0.0
  9
$DIMDLE
 40
0.0
  9
$DIMEXE
 40
1.5
  9
$DIMTP
 40
0.0
  9
$DIMTM
 40
0.0
  9
$DIMTXT
 40
2.5
  9
$DIMCEN
 40
1.0
  9
$DIMTSZ
 40
0.0
  9
$DIMTOL
 70
     0
  9
$DIMLIM
 70
     0
  9
$DIMTIH
 70
     0
  9
$DIMTOH
 70
     0
  9
$DIMSE1
 70
     0
  9
$DIMSE2
 70
     0
  9
$DIMTAD
 70
     1
  9
$DIMZIN
 70
     0
  9
$DIMBLK
  1
UPARO1
  9
$DIMASO
 70
     1
  9
$DIMSHO
 70
     0
  9
$DIMPOST
  1

  9
$DIMAPOST
  1

  9
$DIMALT
 70
     0
  9
$DIMALTD
 70
     2
  9
$DIMALTF
 40
25.4
  9
$DIMLFAC
 40
1.0
  9
$DIMTOFL
 70
     1
  9
$DIMTVP
 40
0.0
  9
$DIMTIX
 70
     0
  9
$DIMSOXD
 70
     0
  9
$DIMSAH
 70
     0
  9
$DIMBLK1
  1

  9
$DIMBLK2
  1

  9
$DIMSTYLE
  2
STANDARD
  9
$DIMCLRD
 70
     1
  9
$DIMCLRE
 70
     1
  9
$DIMCLRT
 70
     1
  9
$DIMTFAC
 40
0.8571428571428571
  9
$DIMGAP
 40
1.0
  9
$DIMJUST
 70
     0
  9
$DIMSD1
 70
     0
  9
$DIMSD2
 70
     0
  9
$DIMTOLJ
 70
     1
  9
$DIMTZIN
 70
     0
  9
$DIMALTZ
 70
     0
  9
$DIMALTTZ
 70
     0
  9
$DIMUPT
 70
     0
  9
$DIMDEC
 70
     0
  9
$DIMTDEC
 70
     0
  9
$DIMALTU
 70
     2
  9
$DIMALTTD
 70
     2
  9
$DIMTXSTY
  7
STANDARD
  9
$DIMAUNIT
 70
     0
  9
$DIMADEC
 70
     0
  9
$DIMALTRND
 40
0.0
  9
$DIMAZIN
 70
     0
  9
$DIMDSEP
 70
    46
  9
$DIMATFIT
 70
     3
  9
$DIMFRAC
 70
     0
  9
$DIMLDRBLK
  1
UPARO1
  9
$DIMLUNIT
 70
     2
  9
$DIMLWD
 70
    -2
  9
$DIMLWE
 70
    -2
  9
$DIMTMOVE
 70
     0
  9
$LUNITS
 70
     2
  9
$LUPREC
 70
     2
  9
$SKETCHINC
 40
0.1
  9
$FILLETRAD
 40
0.0
  9
$AUNITS
 70
     0
  9
$AUPREC
 70
     0
  9
$MENU
  1
A:\R13\WIN\ACAD
  9
$ELEVATION
 40
0.0
  9
$PELEVATION
 40
0.0
  9
$THICKNESS
 40
0.0
  9
$LIMCHECK
 70
     0
  9
$CHAMFERA
 40
0.0
  9
$CHAMFERB
 40
0.0
  9
$CHAMFERC
 40
0.0
  9
$CHAMFERD
 40
0.0
  9
$SKPOLY
 70
     0
  9
$TDCREATE
 40
2451820.696849537
  9
$TDUCREATE
 40
2451820.321849537
  9
$TDUPDATE
 40
2455363.560679433
  9
$TDUUPDATE
 40
2455363.185679433
  9
$TDINDWG
 40
1.0522866088
  9
$TDUSRTIMER
 40
1.0522866088
  9
$USRTIMER
 70
     1
  9
$ANGBASE
 50
0.0
  9
$ANGDIR
 70
     0
  9
$PDMODE
 70
    34
  9
$PDSIZE
 40
10.0
  9
$PLINEWID
 40
0.0
  9
$SPLFRAME
 70
     0
  9
$SPLINETYPE
 70
     6
  9
$SPLINESEGS
 70
     8
  9
$HANDSEED
  5
3828
  9
$SURFTAB1
 70
     6
  9
$SURFTAB2
 70
     6
  9
$SURFTYPE
 70
     6
  9
$SURFU
 70
     6
  9
$SURFV
 70
     6
  9
$UCSBASE
  2

  9
$UCSNAME
  2

  9
$UCSORG
 10
0.0
 20
0.0
 30
0.0
  9
$UCSXDIR
 10
1.0
 20
0.0
 30
0.0
  9
$UCSYDIR
 10
0.0
 20
1.0
 30
0.0
  9
$UCSORTHOREF
  2

  9
$UCSORTHOVIEW
 70
     0
  9
$UCSORGTOP
 10
0.0
 20
0.0
 30
0.0
  9
$UCSORGBOTTOM
 10
0.0
 20
0.0
 30
0.0
  9
$UCSORGLEFT
 10
0.0
 20
0.0
 30
0.0
  9
$UCSORGRIGHT
 10
0.0
 20
0.0
 30
0.0
  9
$UCSORGFRONT
 10
0.0
 20
0.0
 30
0.0
  9
$UCSORGBACK
 10
0.0
 20
0.0
 30
0.0
  9
$PUCSBASE
  2

  9
$PUCSNAME
  2

  9
$PUCSORG
 10
0.0
 20
0.0
 30
0.0
  9
$PUCSXDIR
 10
1.0
 20
0.0
 30
0.0
  9
$PUCSYDIR
 10
0.0
 20
1.0
 30
0.0
  9
$PUCSORTHOREF
  2

  9
$PUCSORTHOVIEW
 70
     0
  9
$PUCSORGTOP
 10
0.0
 20
0.0
 30
0.0
  9
$PUCSORGBOTTOM
 10
0.0
 20
0.0
 30
0.0
  9
$PUCSORGLEFT
 10
0.0
 20
0.0
 30
0.0
  9
$PUCSORGRIGHT
 10
0.0
 20
0.0
 30
0.0
  9
$PUCSORGFRONT
 10
0.0
 20
0.0
 30
0.0
  9
$PUCSORGBACK
 10
0.0
 20
0.0
 30
0.0
  9
$USERI1
 70
     0
  9
$USERI2
 70
     0
  9
$USERI3
 70
     0
  9
$USERI4
 70
     0
  9
$USERI5
 70
     0
  9
$USERR1
 40
0.0
  9
$USERR2
 40
0.0
  9
$USERR3
 40
0.0
  9
$USERR4
 40
0.0
  9
$USERR5
 40
0.0
  9
$WORLDVIEW
 70
     1
  9
$SHADEDGE
 70
     3
  9
$SHADEDIF
 70
    70
  9
$TILEMODE
 70
     1
  9
$MAXACTVP
 70
    16
  9
$PINSBASE
 10
0.0
 20
0.0
 30
0.0
  9
$PLIMCHECK
 70
     0
  9
$PEXTMIN
 10
1.000000000000000E+20
 20
1.000000000000000E+20
 30
1.000000000000000E+20
  9
$PEXTMAX
 10
-1.000000000000000E+20
 20
-1.000000000000000E+20
 30
-1.000000000000000E+20
  9
$PLIMMIN
 10
0.0
 20
0.0
  9
$PLIMMAX
 10
12.0
 20
9.0
  9
$UNITMODE
 70
     0
  9
$VISRETAIN
 70
     0
  9
$PLINEGEN
 70
     0
  9
$PSLTSCALE
 70
     0
  9
$TREEDEPTH
 70
  3020
  9
$CMLSTYLE
  2
STANDARD
  9
$CMLJUST
 70
     0
  9
$CMLSCALE
 40
1.0
  9
$PROXYGRAPHICS
 70
     1
  9
$MEASUREMENT
 70
     0
  9
$CELWEIGHT
370
    -1
  9
$ENDCAPS
280
     0
  9
$JOINSTYLE
280
     0
  9
$LWDISPLAY
290
     0
  9
$INSUNITS
 70
     0
  9
$HYPERLINKBASE
  1

  9
$STYLESHEET
  1
monochrome.ctb
  9
$XEDIT
290
     1
  9
$CEPSNTYPE
380
     0
  9
$PSTYLEMODE
290
     1
  9
$FINGERPRINTGUID
  2
{BDDB1B3D-4E7B-4B93-9093-54C3227FB7F9}
  9
$VERSIONGUID
  2
{659ABCC4-6A9F-4D3A-9D04-6DE1E23975D7}
  9
$EXTNAMES
290
     1
  9
$PSVPSCALE
 40
0.0
  9
$OLESTARTUP
290
     0
  0
ENDSEC
  0
SECTION
  2
CLASSES
  0
CLASS
  1
IDBUFFER
  2
AcDbIdBuffer
  3
AutoCAD 2000
 90
    32768
280
     0
281
     0
  0
CLASS
  1
LWPOLYLINE
  2
AcDbPolyline
  3
AutoCAD 2000
 90
    32768
280
     0
281
     1
  0
CLASS
  1
ACDBDICTIONARYWDFLT
  2
AcDbDictionaryWithDefault
  3
AutoCAD 2000
 90
        0
280
     0
281
     0
  0
CLASS
  1
ACDBPLACEHOLDER
  2
AcDbPlaceHolder
  3
AutoCAD 2000
 90
        0
280
     0
281
     0
  0
CLASS
  1
LAYOUT
  2
AcDbLayout
  3
AutoCAD 2000
 90
        0
280
     0
281
     0
  0
CLASS
  1
DICTIONARYVAR
  2
AcDbDictionaryVar
  3
AutoCAD 2000
 90
        0
280
     0
281
     0
  0
ENDSEC
  0
SECTION
  2
TABLES
  0
TABLE
  2
VPORT
  5
8
330
0
100
AcDbSymbolTable
 70
     4
  0
VPORT
  5
3827
330
8
100
AcDbSymbolTableRecord
100
AcDbViewportTableRecord
  2
*Active
 70
     0
 10
0.0
 20
0.0
 11
1.0
 21
1.0
 12
2516.228214466613
 22
1615.859561453102
 13
0.0
 23
0.0
 14
12.5
 24
12.5
 15
50.0
 25
50.0
 16
0.0
 26
0.0
 36
1.0
 17
0.0
 27
0.0
 37
0.0
 40
3514.186807153845
 41
1.724358974358974
 42
50.0
 43
0.0
 44
0.0
 50
0.0
 51
0.0
 71
     0
 72
   500
 73
     1
 74
     0
 75
     1
 76
     1
 77
     0
 78
     0
281
     0
 65
     1
110
0.0
120
0.0
130
0.0
111
1.0
121
0.0
131
0.0
112
0.0
122
1.0
132
0.0
 79
     0
146
0.0
  0
ENDTAB
  0
TABLE
  2
LTYPE
  5
5
330
0
100
AcDbSymbolTable
 70
     9
  0
LTYPE
  5
12
330
5
100
AcDbSymbolTableRecord
100
AcDbLinetypeTableRecord
  2
BYBLOCK
 70
     0
  3

 72
    65
 73
     0
 40
0.0
  0
LTYPE
  5
13
330
5
100
AcDbSymbolTableRecord
100
AcDbLinetypeTableRecord
  2
BYLAYER
 70
     0
  3

 72
    65
 73
     0
 40
0.0
  0
LTYPE
  5
14
330
5
100
AcDbSymbolTableRecord
100
AcDbLinetypeTableRecord
  2
CONTINUOUS
 70
     0
  3
Solid line
 72
    65
 73
     0
 40
0.0
  0
LTYPE
  5
2A
330
5
100
AcDbSymbolTableRecord
100
AcDbLinetypeTableRecord
  2
DASHED
 70
     0
  3
___  ___  ___  ___  ___  ___  ___  ___
 72
    65
 73
     2
 40
5.0
 49
3.0
 74
     0
 49
-2.0
 74
     0
  0
LTYPE
  5
2B
330
5
100
AcDbSymbolTableRecord
100
AcDbLinetypeTableRecord
  2
HIDDEN
 70
     0
  3
__  __  __  __  __  __  __  __  __  __
 72
    65
 73
     2
 40
2.0
 49
1.0
 74
     0
 49
-1.0
 74
     0
  0
LTYPE
  5
2C
330
5
100
AcDbSymbolTableRecord
100
AcDbLinetypeTableRecord
  2
CENTER
 70
     0
  3
_____ _ _____ _ _____ _ _____ _ _____ _ _____
 72
    65
 73
     4
 40
17.0
 49
14.0
 74
     0
 49
-1.0
 74
     0
 49
1.0
 74
     0
 49
-1.0
 74
     0
  0
LTYPE
  5
2D
330
5
100
AcDbSymbolTableRecord
100
AcDbLinetypeTableRecord
  2
PHANTOM
 70
     0
  3
_____ _ _ _____ _ _ _____ _ _ _____ _ _ _____
 72
    65
 73
     6
 40
19.0
 49
14.0
 74
     0
 49
-1.0
 74
     0
 49
1.0
 74
     0
 49
-1.0
 74
     0
 49
1.0
 74
     0
 49
-1.0
 74
     0
  0
LTYPE
  5
2E
330
5
100
AcDbSymbolTableRecord
100
AcDbLinetypeTableRecord
  2
DOT
 70
     0
  3
_ _ _ _ _ _ _ _ _ _ _ _ _ _ _ _ _ _ _ _ _ _ 
 72
    65
 73
     2
 40
1.0
 49
0.5
 74
     0
 49
-0.5
 74
     0
  0
LTYPE
  5
2F
330
5
100
AcDbSymbolTableRecord
100
AcDbLinetypeTableRecord
  2
DASHDOT
 70
     0
  3
__ . __ . __ . __ . __ . __ . __ . __ . __ . __
 72
    65
 73
     4
 40
8.0
 49
5.0
 74
     0
 49
-1.0
 74
     0
 49
1.0
 74
     0
 49
-1.0
 74
     0
  0
LTYPE
  5
30
330
5
100
AcDbSymbolTableRecord
100
AcDbLinetypeTableRecord
  2
DIVIDE
 70
     0
  3
__ . . __ . . __ . . __ . . __ . . __ . . __
 72
    65
 73
     6
 40
10.0
 49
5.0
 74
     0
 49
-1.0
 74
     0
 49
1.0
 74
     0
 49
-1.0
 74
     0
 49
1.0
 74
     0
 49
-1.0
 74
     0
  0
LTYPE
  5
31
330
5
100
AcDbSymbolTableRecord
100
AcDbLinetypeTableRecord
  2
BORDER
 70
     0
  3
__ __ . __ __ . __ __ . __ __ . __ __ . __ __
 72
    65
 73
     6
 40
22.5
 49
5.0
 74
     0
 49
-2.5
 74
     0
 49
5.0
 74
     0
 49
-2.5
 74
     0
 49
5.0
 74
     0
 49
-2.5
 74
     0
  0
ENDTAB
  0
TABLE
  2
LAYER
  5
2
330
0
100
AcDbSymbolTable
 70
    20
  0
LAYER
  5
F
330
2
100
AcDbSymbolTableRecord
100
AcDbLayerTableRecord
  2
0
 70
     0
 62
     7
  6
CONTINUOUS
370
    -3
390
33EF
  0
LAYER
  5
34
330
2
100
AcDbSymbolTableRecord
100
AcDbLayerTableRecord
  2
1
 70
     0
 62
     7
  6
CONTINUOUS
370
    -3
390
33EF
  0
LAYER
  5
35
330
2
100
AcDbSymbolTableRecord
100
AcDbLayerTableRecord
  2
TEN
 70
     0
 62
    -8
  6
DASHED
370
    -3
390
33EF
  0
LAYER
  5
36
330
2
100
AcDbSymbolTableRecord
100
AcDbLayerTableRecord
  2
HOJO
 70
     0
 62
     5
  6
CONTINUOUS
370
    -3
390
33EF
  0
LAYER
  5
37
330
2
100
AcDbSymbolTableRecord
100
AcDbLayerTableRecord
  2
SIN-JIS
 70
     0
 62
     2
  6
CONTINUOUS
370
    -3
390
33EF
  0
LAYER
  5
38
330
2
100
AcDbSymbolTableRecord
100
AcDbLayerTableRecord
  2
KYU-JIS
 70
     0
 62
    -3
  6
CONTINUOUS
370
    -3
390
33EF
  0
LAYER
  5
39
330
2
100
AcDbSymbolTableRecord
100
AcDbLayerTableRecord
  2
JIS
 70
     0
 62
     6
  6
CONTINUOUS
370
    -3
390
33EF
  0
LAYER
  5
3A
330
2
100
AcDbSymbolTableRecord
100
AcDbLayerTableRecord
  2
ZOKUSEI
 70
     0
 62
     4
  6
CONTINUOUS
370
    -3
390
33EF
  0
LAYER
  5
3B
330
2
100
AcDbSymbolTableRecord
100
AcDbLayerTableRecord
  2
KUROMARU
 70
     0
 62
     1
  6
CONTINUOUS
370
    -3
390
33EF
  0
LAYER
  5
3C
330
2
100
AcDbSymbolTableRecord
100
AcDbLayerTableRecord
  2
SENBAN
 70
     0
 62
     6
  6
CONTINUOUS
370
    -3
390
33EF
  0
LAYER
  5
3D
330
2
100
AcDbSymbolTableRecord
100
AcDbLayerTableRecord
  2
GAIKEI1
 70
     0
 62
     2
  6
CONTINUOUS
370
    -3
390
33EF
  0
LAYER
  5
3E
330
2
100
AcDbSymbolTableRecord
100
AcDbLayerTableRecord
  2
GAIKEI2
 70
     0
 62
     3
  6
CONTINUOUS
370
    -3
390
33EF
  0
LAYER
  5
3F
330
2
100
AcDbSymbolTableRecord
100
AcDbLayerTableRecord
  2
GAIKEI3
 70
     0
 62
     4
  6
CONTINUOUS
370
    -3
390
33EF
  0
LAYER
  5
40
330
2
100
AcDbSymbolTableRecord
100
AcDbLayerTableRecord
  2
WAKU
 70
     0
 62
     3
  6
CONTINUOUS
370
    -3
390
33EF
  0
LAYER
  5
41
330
2
100
AcDbSymbolTableRecord
100
AcDbLayerTableRecord
  2
MEMORI
 70
     0
 62
     7
  6
CONTINUOUS
370
    -3
390
33EF
  0
LAYER
  5
55C
330
2
100
AcDbSymbolTableRecord
100
AcDbLayerTableRecord
  2
DEFPOINTS
 70
     0
 62
     7
  6
CONTINUOUS
290
     0
370
    -3
390
33EF
  0
LAYER
  5
201F
330
2
100
AcDbSymbolTableRecord
100
AcDbLayerTableRecord
  2
C-CIRCUIT
 70
     0
 62
     7
  6
CONTINUOUS
370
    -3
390
33EF
  0
LAYER
  5
2E04
330
2
100
AcDbSymbolTableRecord
100
AcDbLayerTableRecord
  2
CONTROL-CIRCUIT
 70
     0
 62
     7
  6
CONTINUOUS
370
    -3
390
33EF
  0
LAYER
  5
2E06
330
2
100
AcDbSymbolTableRecord
100
AcDbLayerTableRecord
  2
WAKU-MOJI
 70
     0
 62
     7
  6
CONTINUOUS
370
    -3
390
33EF
  0
LAYER
  5
340B
330
2
100
AcDbSymbolTableRecord
100
AcDbLayerTableRecord
  2
MAIN-CIRCUIT
 70
     0
 62
     7
  6
CONTINUOUS
370
    -3
390
33EF
  0
ENDTAB
  0
TABLE
  2
STYLE
  5
3
330
0
100
AcDbSymbolTable
 70
    18
  0
STYLE
  5
10
330
3
100
AcDbSymbolTableRecord
100
AcDbTextStyleTableRecord
  2
STANDARD
 70
     0
 40
0.0
 41
0.8
 50
0.0
 71
     0
 42
30.0
  3
monotxt
  4
EXTFONT.SHX
  0
STYLE
  5
1C
330
3
100
AcDbSymbolTableRecord
100
AcDbTextStyleTableRecord
  2
M4
 70
     0
 40
0.0
 41
0.4
 50
0.0
 71
     0
 42
30.0
  3
monotxt
  4
EXTFONT.SHX
  0
STYLE
  5
1D
330
3
100
AcDbSymbolTableRecord
100
AcDbTextStyleTableRecord
  2
M5
 70
     0
 40
0.0
 41
0.5
 50
0.0
 71
     0
 42
40.0
  3
monotxt
  4
EXTFONT.SHX
  0
STYLE
  5
1E
330
3
100
AcDbSymbolTableRecord
100
AcDbTextStyleTableRecord
  2
M6
 70
     0
 40
0.0
 41
0.6
 50
0.0
 71
     0
 42
30.0
  3
monotxt
  4
EXTFONT.SHX
  0
STYLE
  5
1F
330
3
100
AcDbSymbolTableRecord
100
AcDbTextStyleTableRecord
  2
M7
 70
     0
 40
0.0
 41
0.7
 50
0.0
 71
     0
 42
25.0
  3
MONOTXT
  4
EXTFONT.SHX
  0
STYLE
  5
20
330
3
100
AcDbSymbolTableRecord
100
AcDbTextStyleTableRecord
  2
M8
 70
     0
 40
0.0
 41
0.8
 50
0.0
 71
     0
 42
30.0
  3
ROMANS
  4
EXTFONT
  0
STYLE
  5
21
330
3
100
AcDbSymbolTableRecord
100
AcDbTextStyleTableRecord
  2
M9
 70
     0
 40
0.0
 41
0.9
 50
0.0
 71
     0
 42
30.0
  3
monotxt
  4
EXTFONT.SHX
  0
STYLE
  5
22
330
3
100
AcDbSymbolTableRecord
100
AcDbTextStyleTableRecord
  2
M0
 70
     0
 40
0.0
 41
1.0
 50
0.0
 71
     0
 42
30.0
  3
monotxt
  4
EXTFONT.SHX
  0
STYLE
  5
23
330
3
100
AcDbSymbolTableRecord
100
AcDbTextStyleTableRecord
  2
TM5
 70
     4
 40
0.0
 41
0.5
 50
0.0
 71
     0
 42
30.0
  3
monotxt
  4
EXTFONT.SHX
  0
STYLE
  5
24
330
3
100
AcDbSymbolTableRecord
100
AcDbTextStyleTableRecord
  2
TM8
 70
     4
 40
0.0
 41
0.8
 50
0.0
 71
     0
 42
30.0
  3
monotxt
  4
EXTFONT.SHX
  0
STYLE
  5
25
330
3
100
AcDbSymbolTableRecord
100
AcDbTextStyleTableRecord
  2
TM0
 70
     4
 40
0.0
 41
1.0
 50
0.0
 71
     0
 42
30.0
  3
monotxt
  4
EXTFONT.SHX
  0
STYLE
  5
26
330
3
100
AcDbSymbolTableRecord
100
AcDbTextStyleTableRecord
  2
TM4
 70
     4
 40
0.0
 41
0.4
 50
0.0
 71
     0
 42
60.0
  3
MONOTXT
  4
EXTFONT.SHX
  0
STYLE
  5
27
330
3
100
AcDbSymbolTableRecord
100
AcDbTextStyleTableRecord
  2
TM6
 70
     4
 40
0.0
 41
0.6
 50
0.0
 71
     0
 42
60.0
  3
MONOTXT
  4
EXTFONT.SHX
  0
STYLE
  5
28
330
3
100
AcDbSymbolTableRecord
100
AcDbTextStyleTableRecord
  2
TM7
 70
     4
 40
0.0
 41
0.7
 50
0.0
 71
     0
 42
20.0
  3
MONOTXT
  4
EXTFONT.SHX
  0
STYLE
  5
29
330
3
100
AcDbSymbolTableRecord
100
AcDbTextStyleTableRecord
  2
TM9
 70
     4
 40
0.0
 41
0.8
 50
0.0
 71
     0
 42
60.0
  3
MONOTXT
  4
EXTFONT.SHX
  0
STYLE
  5
2B21
330
3
100
AcDbSymbolTableRecord
100
AcDbTextStyleTableRecord
  2
ASHADE
 70
     0
 40
0.2
 41
1.0
 50
0.0
 71
     0
 42
25.0
  3
txt.shx
  4
bigfont.shx
  0
STYLE
  5
342B
330
3
100
AcDbSymbolTableRecord
100
AcDbTextStyleTableRecord
  2
EXCADSTD
 70
     0
 40
0.0
 41
1.0
 50
0.0
 71
     0
 42
0.2
  3
monotxt
  4
bigfont
  0
STYLE
  5
344F
330
3
100
AcDbSymbolTableRecord
100
AcDbTextStyleTableRecord
  2
EXCADVERT
 70
     4
 40
0.0
 41
1.0
 50
0.0
 71
     0
 42
0.286885
  3
monotxt
  4
bigfont
  0
ENDTAB
  0
TABLE
  2
VIEW
  5
6
330
0
100
AcDbSymbolTable
 70
     0
  0
ENDTAB
  0
TABLE
  2
UCS
  5
7
330
0
100
AcDbSymbolTable
 70
     0
  0
ENDTAB
  0
TABLE
  2
APPID
  5
9
330
0
100
AcDbSymbolTable
 70
     7
  0
APPID
  5
11
330
9
100
AcDbSymbolTableRecord
100
AcDbRegAppTableRecord
  2
ACAD
 70
     0
  0
APPID
  5
1FCE
330
9
100
AcDbSymbolTableRecord
100
AcDbRegAppTableRecord
  2
UBOX
 70
     0
  0
APPID
  5
2B23
330
9
100
AcDbSymbolTableRecord
100
AcDbRegAppTableRecord
  2
AVE_RENDER
 70
     0
  0
APPID
  5
2B24
330
9
100
AcDbSymbolTableRecord
100
AcDbRegAppTableRecord
  2
AVE_ENTITY_MATERIAL
 70
     0
  0
APPID
  5
2B31
330
9
100
AcDbSymbolTableRecord
100
AcDbRegAppTableRecord
  2
AVE_FINISH
 70
     0
  0
APPID
  5
2B32
330
9
100
AcDbSymbolTableRecord
100
AcDbRegAppTableRecord
  2
AVE_MATERIAL
 70
     0
  0
APPID
  5
2B33
330
9
100
AcDbSymbolTableRecord
100
AcDbRegAppTableRecord
  2
AVE_GLOBAL
 70
     0
  0
ENDTAB
  0
TABLE
  2
DIMSTYLE
  5
A
330
0
100
AcDbSymbolTable
 70
     1
100
AcDbDimStyleTable
 71
     0
  0
DIMSTYLE
105
46
330
A
100
AcDbSymbolTableRecord
100
AcDbDimStyleTableRecord
  2
STANDARD
 70
     0
 40
10.0
 41
0.8
 42
1.0
 43
5.0
 44
1.5
 73
     0
 74
     0
 77
     1
140
3.5
141
1.0
146
0.8571428571428571
147
1.0
172
     1
176
     1
177
     1
178
     1
271
     0
272
     0
340
10
  0
ENDTAB
  0
TABLE
  2
BLOCK_RECORD
  5
1
330
0
100
AcDbSymbolTable
 70
    15
  0
BLOCK_RECORD
  5
18
330
1
100
AcDbSymbolTableRecord
100
AcDbBlockTableRecord
  2
*MODEL_SPACE
340
33F2
  0
BLOCK_RECORD
  5
15
330
1
100
AcDbSymbolTableRecord
100
AcDbBlockTableRecord
  2
*PAPER_SPACE
340
33F3
  0
BLOCK_RECORD
  5
2043
330
1
100
AcDbSymbolTableRecord
100
AcDbBlockTableRecord
  2
UPARO1
340
0
  0
BLOCK_RECORD
  5
2048
330
1
100
AcDbSymbolTableRecord
100
AcDbBlockTableRecord
  2
UJCB3
340
0
102
{BLKREFS
331
20C7
102
}
  0
BLOCK_RECORD
  5
26AD
330
1
100
AcDbSymbolTableRecord
100
AcDbBlockTableRecord
  2
UJEB10
340
0
102
{BLKREFS
331
2713
331
2A47
331
2A5B
331
2A6F
331
2A83
331
2A97
331
2ECC
331
2EE8
331
307A
102
}
  0
BLOCK_RECORD
  5
26CF
330
1
100
AcDbSymbolTableRecord
100
AcDbBlockTableRecord
  2
UJEB6
340
0
102
{BLKREFS
331
2709
331
2A44
331
2A58
331
2A6C
331
2A80
331
2A94
331
2EC7
331
2EE3
331
3079
102
}
  0
BLOCK_RECORD
  5
29C5
330
1
100
AcDbSymbolTableRecord
100
AcDbBlockTableRecord
  2
SYO002
340
0
102
{BLKREFS
331
29CA
331
29CC
102
}
  0
BLOCK_RECORD
  5
2AF2
330
1
100
AcDbSymbolTableRecord
100
AcDbBlockTableRecord
  2
SYO001
340
0
102
{BLKREFS
331
2B03
331
2B05
331
2B07
331
2B09
331
2B0B
331
2B11
331
2B13
331
2B15
331
2B17
331
2B19
331
2EC5
331
2ED1
331
2EE1
331
2EED
331
306A
331
3073
102
}
  0
BLOCK_RECORD
  5
2DF4
330
1
100
AcDbSymbolTableRecord
100
AcDbBlockTableRecord
  2
P10
340
0
102
{BLKREFS
331
2DFB
102
}
  0
BLOCK_RECORD
  5
2DFA
330
1
100
AcDbSymbolTableRecord
100
AcDbBlockTableRecord
  2
AN07
340
0
102
{BLKREFS
331
3523
102
}
  0
BLOCK_RECORD
  5
3043
102
{ACAD_XDICTIONARY
360
305A
102
}
330
1
100
AcDbSymbolTableRecord
100
AcDbBlockTableRecord
  2
2409618
340
0
  0
BLOCK_RECORD
  5
3498
330
1
100
AcDbSymbolTableRecord
100
AcDbBlockTableRecord
  2
TB-EU
340
0
102
{BLKREFS
331
3645
331
3643
331
364F
102
}
  0
BLOCK_RECORD
  5
349D
330
1
100
AcDbSymbolTableRecord
100
AcDbBlockTableRecord
  2
TB-ED
340
0
102
{BLKREFS
331
3526
102
}
  0
BLOCK_RECORD
  5
34A2
330
1
100
AcDbSymbolTableRecord
100
AcDbBlockTableRecord
  2
AM03
340
0
102
{BLKREFS
331
3524
102
}
  0
BLOCK_RECORD
  5
34A7
330
1
100
AcDbSymbolTableRecord
100
AcDbBlockTableRecord
  2
AL03
340
0
102
{BLKREFS
331
3647
102
}
  0
BLOCK_RECORD
  5
34AC
330
1
100
AcDbSymbolTableRecord
100
AcDbBlockTableRecord
  2
AY03
340
0
  0
BLOCK_RECORD
  5
34BA
330
1
100
AcDbSymbolTableRecord
100
AcDbBlockTableRecord
  2
AY02
340
0
  0
ENDTAB
  0
ENDSEC
  0
SECTION
  2
BLOCKS
  0
BLOCK
  5
44
330
18
100
AcDbEntity
  8
0
100
AcDbBlockBegin
  2
*MODEL_SPACE
 70
     0
 10
0.0
 20
0.0
 30
0.0
  3
*MODEL_SPACE
  1

  0
ENDBLK
  5
45
330
18
100
AcDbEntity
  8
0
100
AcDbBlockEnd
  0
BLOCK
  5
42
330
15
100
AcDbEntity
 67
     1
  8
0
100
AcDbBlockBegin
  2
*PAPER_SPACE
 70
     0
 10
0.0
 20
0.0
 30
0.0
  3
*PAPER_SPACE
  1

  0
ENDBLK
  5
43
330
15
100
AcDbEntity
 67
     1
  8
0
100
AcDbBlockEnd
  0
BLOCK
  5
2046
330
2043
100
AcDbEntity
  8
0
100
AcDbBlockBegin
  2
UPARO1
 70
     0
 10
0.0
 20
0.0
 30
0.0
  3
UPARO1
  1

  0
SOLID
  5
2044
330
2043
100
AcDbEntity
  8
0
  6
ByBlock
 62
     0
100
AcDbTrace
 10
-2.5
 20
-0.4166666666665151
 30
0.0
 11
-2.5
 21
0.4166666666665151
 31
0.0
 12
0.0
 22
0.0
 32
0.0
 13
0.0
 23
0.0
 33
0.0
  0
LINE
  5
2045
330
2043
100
AcDbEntity
  8
0
  6
ByBlock
 62
     0
100
AcDbLine
 10
-2.5
 20
0.0
 30
0.0
 11
-5.0
 21
0.0
 31
0.0
  0
ENDBLK
  5
2047
330
2043
100
AcDbEntity
  8
0
100
AcDbBlockEnd
  0
BLOCK
  5
2073
330
2048
100
AcDbEntity
  8
0
100
AcDbBlockBegin
  2
UJCB3
 70
     2
 10
0.0
 20
0.0
 30
0.0
  3
UJCB3
  1

  0
LINE
  5
2049
330
2048
100
AcDbEntity
  8
KYU-JIS
  6
ByBlock
100
AcDbLine
 10
24.99999999999977
 20
-0.0000000000004547
 30
0.0
 11
124.999998
 21
-0.0000000000004547
 31
0.0
  0
LINE
  5
204A
330
2048
100
AcDbEntity
  8
KYU-JIS
  6
ByBlock
100
AcDbLine
 10
-0.0000000000002274
 20
-49.99999900000102
 30
0.0
 11
-0.0000000000002274
 21
-99.99999900000103
 31
0.0
  0
LINE
  5
204B
330
2048
100
AcDbEntity
  8
KYU-JIS
  6
ByBlock
100
AcDbLine
 10
-0.0000000000002274
 20
99.9999989999992
 30
0.0
 11
-0.0000000000002274
 21
49.9999989999992
 31
0.0
  0
CIRCLE
  5
204C
330
2048
100
AcDbEntity
  8
KYU-JIS
  6
ByBlock
100
AcDbCircle
 10
-0.0000000000002274
 20
-41.99996900000087
 30
0.0
 40
8.0
  0
CIRCLE
  5
204D
330
2048
100
AcDbEntity
  8
KYU-JIS
  6
ByBlock
100
AcDbCircle
 10
-0.0000000000002274
 20
41.99996899999905
 30
0.0
 40
8.0
  0
ARC
  5
204E
330
2048
100
AcDbEntity
  8
KYU-JIS
  6
ByBlock
100
AcDbCircle
 10
-35.83332000000087
 20
-0.0000000000009095
 30
0.0
 40
60.83331999999999
100
AcDbArc
 50
321.8412169999999
 51
38.15879799999999
  0
LINE
  5
204F
330
2048
100
AcDbEntity
  8
KYU-JIS
  6
ByBlock
100
AcDbLine
 10
49.99999899999943
 20
-49.99999900000102
 30
0.0
 11
49.99999899999943
 21
-99.99999900000103
 31
0.0
  0
LINE
  5
2050
330
2048
100
AcDbEntity
  8
KYU-JIS
  6
ByBlock
100
AcDbLine
 10
49.99999899999943
 20
99.9999989999992
 30
0.0
 11
49.99999899999943
 21
49.9999989999992
 31
0.0
  0
CIRCLE
  5
2051
330
2048
100
AcDbEntity
  8
KYU-JIS
  6
ByBlock
100
AcDbCircle
 10
49.99999899999943
 20
-41.99996900000087
 30
0.0
 40
8.0
  0
CIRCLE
  5
2052
330
2048
100
AcDbEntity
  8
KYU-JIS
  6
ByBlock
100
AcDbCircle
 10
49.99999899999943
 20
41.99996899999905
 30
0.0
 40
8.0
  0
ARC
  5
2053
330
2048
100
AcDbEntity
  8
KYU-JIS
  6
ByBlock
100
AcDbCircle
 10
14.1666789999997
 20
-0.0000000000009095
 30
0.0
 40
60.83331999999999
100
AcDbArc
 50
321.8412169999999
 51
38.15879799999999
  0
LINE
  5
2054
330
2048
100
AcDbEntity
  8
KYU-JIS
  6
ByBlock
100
AcDbLine
 10
99.99999899999943
 20
-49.99999900000102
 30
0.0
 11
99.99999899999943
 21
-99.99999900000103
 31
0.0
  0
LINE
  5
2055
330
2048
100
AcDbEntity
  8
KYU-JIS
  6
ByBlock
100
AcDbLine
 10
99.99999899999943
 20
99.9999989999992
 30
0.0
 11
99.99999899999943
 21
49.9999989999992
 31
0.0
  0
CIRCLE
  5
2056
330
2048
100
AcDbEntity
  8
KYU-JIS
  6
ByBlock
100
AcDbCircle
 10
99.99999899999943
 20
-41.99996900000087
 30
0.0
 40
8.0
  0
CIRCLE
  5
2057
330
2048
100
AcDbEntity
  8
KYU-JIS
  6
ByBlock
100
AcDbCircle
 10
99.99999899999943
 20
41.99996899999905
 30
0.0
 40
8.0
  0
ARC
  5
2058
330
2048
100
AcDbEntity
  8
KYU-JIS
  6
ByBlock
100
AcDbCircle
 10
64.16667799999936
 20
-0.0000000000009095
 30
0.0
 40
60.83331999999999
100
AcDbArc
 50
321.8412169999999
 51
38.15879799999999
  0
LINE
  5
2059
330
2048
100
AcDbEntity
  8
SIN-JIS
  6
HIDDEN
100
AcDbLine
 10
-15.62500000000022
 20
19.99999999999909
 30
0.0
 11
84.37499899999943
 21
19.99999999999909
 31
0.0
  0
LINE
  5
205A
330
2048
100
AcDbEntity
  8
SIN-JIS
  6
ByBlock
100
AcDbLine
 10
92.0001209999998
 20
48.00002999999924
 30
0.0
 11
107.9998759999996
 21
31.99996899999905
 31
0.0
  0
LINE
  5
205B
330
2048
100
AcDbEntity
  8
SIN-JIS
  6
ByBlock
100
AcDbLine
 10
92.0001209999998
 20
31.99996899999905
 30
0.0
 11
107.9998759999996
 21
48.00002999999924
 31
0.0
  0
LINE
  5
205C
330
2048
100
AcDbEntity
  8
SIN-JIS
  6
ByBlock
100
AcDbLine
 10
74.99999899999943
 20
49.9999989999992
 30
0.0
 11
99.99999899999943
 21
-30.00000000000091
 31
0.0
  0
LINE
  5
205D
330
2048
100
AcDbEntity
  8
SIN-JIS
  6
ByBlock
100
AcDbLine
 10
99.99999899999943
 20
-30.00000000000091
 30
0.0
 11
99.99999899999943
 21
-99.99999900000103
 31
0.0
  0
LINE
  5
205E
330
2048
100
AcDbEntity
  8
SIN-JIS
  6
ByBlock
100
AcDbLine
 10
99.99999899999943
 20
99.9999989999992
 30
0.0
 11
99.99999899999943
 21
39.9999989999992
 31
0.0
  0
LINE
  5
205F
330
2048
100
AcDbEntity
  8
SIN-JIS
  6
ByBlock
100
AcDbLine
 10
42.0001209999998
 20
48.00002999999924
 30
0.0
 11
57.99987699999906
 21
31.99996899999905
 31
0.0
  0
LINE
  5
2060
330
2048
100
AcDbEntity
  8
SIN-JIS
  6
ByBlock
100
AcDbLine
 10
42.0001209999998
 20
31.99996899999905
 30
0.0
 11
57.99987699999906
 21
48.00002999999924
 31
0.0
  0
LINE
  5
2061
330
2048
100
AcDbEntity
  8
SIN-JIS
  6
ByBlock
100
AcDbLine
 10
24.99999999999977
 20
49.9999989999992
 30
0.0
 11
49.99999899999943
 21
-30.00000000000091
 31
0.0
  0
LINE
  5
2062
330
2048
100
AcDbEntity
  8
SIN-JIS
  6
ByBlock
100
AcDbLine
 10
49.99999899999943
 20
-30.00000000000091
 30
0.0
 11
49.99999899999943
 21
-99.99999900000103
 31
0.0
  0
LINE
  5
2063
330
2048
100
AcDbEntity
  8
SIN-JIS
  6
ByBlock
100
AcDbLine
 10
49.99999899999943
 20
99.9999989999992
 30
0.0
 11
49.99999899999943
 21
39.9999989999992
 31
0.0
  0
LINE
  5
2064
330
2048
100
AcDbEntity
  8
SIN-JIS
  6
ByBlock
100
AcDbLine
 10
-7.999878000000762
 20
48.00002999999924
 30
0.0
 11
7.999877999999398
 21
31.99996899999905
 31
0.0
  0
LINE
  5
2065
330
2048
100
AcDbEntity
  8
SIN-JIS
  6
ByBlock
100
AcDbLine
 10
-7.999878000000762
 20
31.99996899999905
 30
0.0
 11
7.999877999999398
 21
48.00002999999924
 31
0.0
  0
LINE
  5
2066
330
2048
100
AcDbEntity
  8
SIN-JIS
  6
ByBlock
100
AcDbLine
 10
-25.00000000000023
 20
49.9999989999992
 30
0.0
 11
-0.0000000000002274
 21
-30.00000000000091
 31
0.0
  0
LINE
  5
2067
330
2048
100
AcDbEntity
  8
SIN-JIS
  6
ByBlock
100
AcDbLine
 10
-0.0000000000002274
 20
-30.00000000000091
 30
0.0
 11
-0.0000000000002274
 21
-99.99999900000103
 31
0.0
  0
LINE
  5
2068
330
2048
100
AcDbEntity
  8
SIN-JIS
  6
ByBlock
100
AcDbLine
 10
-0.0000000000002274
 20
99.9999989999992
 30
0.0
 11
-0.0000000000002274
 21
39.9999989999992
 31
0.0
  0
ATTDEF
  5
2069
330
2048
100
AcDbEntity
  8
ZOKUSEI
  6
Continuous
100
AcDbText
 10
150.0
 20
20.0
 30
0.0
 40
25.0
  1
MCCB
 41
0.7
  7
M7
100
AcDbAttributeDefinition
  3
記号を入力してください
  2
KIGO
 70
     8
  0
ATTDEF
  5
206A
330
2048
100
AcDbEntity
  8
ZOKUSEI
100
AcDbText
 10
269.9999959999999
 20
19.99999999999909
 30
0.0
 40
25.0
  1
3P
 41
0.7
  7
M7
100
AcDbAttributeDefinition
  3
極数を入力してください:
  2
KYOKU
 70
     0
  0
ATTDEF
  5
206B
330
2048
100
AcDbEntity
  8
ZOKUSEI
100
AcDbText
 10
149.9999989999996
 20
-20.00000796306358
 30
0.0
 40
25.0
  1
100AF
 41
0.7
  7
M7
100
AcDbAttributeDefinition
  3
フレーム電流を入力してください
  2
TEIKAKU1
 70
     0
  0
ATTDEF
  5
206C
330
2048
100
AcDbEntity
  8
ZOKUSEI
100
AcDbText
 10
269.9999989999996
 20
-20.00000796306358
 30
0.0
 40
25.0
  1
100AT
 41
0.7
  7
M7
100
AcDbAttributeDefinition
  3
定格電流を入力してください
  2
TEIKAKU2
 70
     0
  0
ATTDEF
  5
206D
330
2048
100
AcDbEntity
  8
ZOKUSEI
100
AcDbText
 10
149.999998
 20
-59.99999900000102
 30
0.0
 40
25.0
  1
(NF100-CS)
 41
0.7
  7
M7
100
AcDbAttributeDefinition
  3
形式を入力してください:
  2
KATA
 70
     0
  0
POINT
  5
206E
330
2048
100
AcDbEntity
  8
TEN
100
AcDbPoint
 10
149.999998
 20
19.99999999999909
 30
0.0
  0
POINT
  5
206F
330
2048
100
AcDbEntity
  8
TEN
100
AcDbPoint
 10
269.9999959999991
 20
19.99999999999954
 30
0.0
  0
POINT
  5
2070
330
2048
100
AcDbEntity
  8
TEN
100
AcDbPoint
 10
149.999998
 20
-20.00000000000091
 30
0.0
  0
POINT
  5
2071
330
2048
100
AcDbEntity
  8
TEN
100
AcDbPoint
 10
269.9999969999999
 20
-20.00000796306358
 30
0.0
  0
POINT
  5
2072
330
2048
100
AcDbEntity
  8
TEN
100
AcDbPoint
 10
149.999998
 20
-59.99999900000102
 30
0.0
  0
ENDBLK
  5
2074
330
2048
100
AcDbEntity
  8
0
100
AcDbBlockEnd
  0
BLOCK
  5
26CC
330
26AD
100
AcDbEntity
  8
0
100
AcDbBlockBegin
  2
UJEB10
 70
     0
 10
0.0
 20
0.0
 30
0.0
  3
UJEB10
  1

  0
ARC
  5
26AE
330
26AD
100
AcDbEntity
  8
KYU-JIS
  6
ByBlock
100
AcDbCircle
 10
100.0
 20
-35.83328200000005
 30
0.0
 40
60.83331999999999
100
AcDbArc
 50
51.84115999999999
 51
128.1588439999999
  0
ARC
  5
26AF
330
26AD
100
AcDbEntity
  8
KYU-JIS
  6
ByBlock
100
AcDbCircle
 10
100.0
 20
-85.83328100000017
 30
0.0
 40
60.83331999999999
100
AcDbArc
 50
51.84115999999999
 51
128.1588439999999
  0
LWPOLYLINE
  5
26B0
330
26AD
100
AcDbEntity
  8
SIN-JIS
  6
HIDDEN
100
AcDbPolyline
 90
        4
 70
     0
 43
0.0
 10
80.0
 20
-15.625
 10
80.0
 20
20.0
 10
164.9999990000001
 20
20.0
 10
164.9999990000001
 20
0.0
  0
LINE
  5
26B1
330
26AD
100
AcDbEntity
  8
SIN-JIS
  6
ByBlock
100
AcDbLine
 10
50.00000099999988
 20
-25.0
 30
0.0
 11
130.0
 21
0.0
 31
0.0
  0
LINE
  5
26B2
330
26AD
100
AcDbEntity
  8
SIN-JIS
  6
ByBlock
100
AcDbLine
 10
50.00000099999988
 20
-74.99999899999966
 30
0.0
 11
130.0
 21
-49.99999899999966
 31
0.0
  0
LINE
  5
26B3
330
26AD
100
AcDbEntity
  8
SIN-JIS
  6
HIDDEN
100
AcDbLine
 10
80.0
 20
-65.62499899999966
 30
0.0
 11
80.0
 21
-15.625
 31
0.0
  0
LINE
  5
26B4
330
26AD
100
AcDbEntity
  8
KYU-JIS
  6
ByBlock
100
AcDbLine
 10
50.00000099999988
 20
0.0
 30
0.0
 11
0.0000009999998838
 21
0.0
 31
0.0
  0
LINE
  5
26B5
330
26AD
100
AcDbEntity
  8
KYU-JIS
  6
ByBlock
100
AcDbLine
 10
50.00000099999988
 20
-49.99999899999966
 30
0.0
 11
0.0000009999998838
 21
-49.99999899999966
 31
0.0
  0
LINE
  5
26B6
330
26AD
100
AcDbEntity
  8
SIN-JIS
  6
ByBlock
100
AcDbLine
 10
0.0000009999998838
 20
0.0
 30
0.0
 11
60.00000099999988
 21
0.0
 31
0.0
  0
LINE
  5
26B7
330
26AD
100
AcDbEntity
  8
SIN-JIS
  6
ByBlock
100
AcDbLine
 10
0.0000009999998838
 20
-49.99999899999966
 30
0.0
 11
60.00000099999988
 21
-49.99999899999966
 31
0.0
  0
CIRCLE
  5
26B8
330
26AD
100
AcDbEntity
  8
KYU-JIS
  6
ByBlock
100
AcDbCircle
 10
58.00018399999999
 20
-49.99999899999966
 30
0.0
 40
8.0
  0
LINE
  5
26B9
330
26AD
100
AcDbEntity
  8
SIN-JIS
  6
ByBlock
100
AcDbLine
 10
51.99997000000007
 20
-57.9998770000002
 30
0.0
 11
68.00003100000004
 21
-42.00012100000003
 31
0.0
  0
LINE
  5
26BA
330
26AD
100
AcDbEntity
  8
SIN-JIS
  6
ByBlock
100
AcDbLine
 10
68.00003100000004
 20
-57.9998770000002
 30
0.0
 11
51.99997000000007
 21
-42.00012100000003
 31
0.0
  0
CIRCLE
  5
26BB
330
26AD
100
AcDbEntity
  8
KYU-JIS
  6
ByBlock
100
AcDbCircle
 10
58.00018399999999
 20
0.0
 30
0.0
 40
8.0
  0
LINE
  5
26BC
330
26AD
100
AcDbEntity
  8
SIN-JIS
  6
ByBlock
100
AcDbLine
 10
51.99997000000007
 20
-7.99987800000008
 30
0.0
 11
68.00003100000004
 21
7.99987800000008
 31
0.0
  0
LINE
  5
26BD
330
26AD
100
AcDbEntity
  8
SIN-JIS
  6
ByBlock
100
AcDbLine
 10
68.00003100000004
 20
-7.99987800000008
 30
0.0
 11
51.99997000000007
 21
7.99987800000008
 31
0.0
  0
LWPOLYLINE
  5
26BE
330
26AD
100
AcDbEntity
  8
KYU-JIS
  6
ByBlock
100
AcDbPolyline
 90
        5
 70
     0
 43
0.0
 10
159.9999990000001
 20
20.0
 10
167.4999990000001
 20
-69.99999899999966
 10
174.9999990000001
 20
20.0
 10
182.4999990000001
 20
-69.99999899999966
 10
189.9999990000001
 20
20.0
  0
ARC
  5
26BF
330
26AD
100
AcDbEntity
  8
SIN-JIS
  6
ByBlock
100
AcDbCircle
 10
172.4999990000001
 20
-59.99999899999966
 30
0.0
 40
7.5
100
AcDbArc
 50
180.0
 51
0.0
  0
ARC
  5
26C0
330
26AD
100
AcDbEntity
  8
SIN-JIS
  6
ByBlock
100
AcDbCircle
 10
157.4999990000001
 20
-59.99999899999966
 30
0.0
 40
7.5
100
AcDbArc
 50
180.0
 51
0.0
  0
LWPOLYLINE
  5
26C1
330
26AD
100
AcDbEntity
  8
KYU-JIS
  6
ByBlock
100
AcDbPolyline
 90
        4
 70
     0
 43
0.0
 10
100.0
 20
25.0
 10
100.0
 20
30.0
 10
174.9999990000001
 20
30.0
 10
174.9999990000001
 20
20.0
  0
LINE
  5
26C2
330
26AD
100
AcDbEntity
  8
KYU-JIS
  6
ByBlock
100
AcDbLine
 10
199.9999990000001
 20
0.0
 30
0.0
 11
149.9999990000001
 21
0.0
 31
0.0
  0
LINE
  5
26C3
330
26AD
100
AcDbEntity
  8
KYU-JIS
  6
ByBlock
100
AcDbLine
 10
199.9999990000001
 20
-49.99999899999966
 30
0.0
 11
149.9999990000001
 21
-49.99999899999966
 31
0.0
  0
LINE
  5
26C4
330
26AD
100
AcDbEntity
  8
SIN-JIS
  6
ByBlock
100
AcDbLine
 10
130.0
 20
0.0
 30
0.0
 11
199.9999990000001
 21
0.0
 31
0.0
  0
LINE
  5
26C5
330
26AD
100
AcDbEntity
  8
SIN-JIS
  6
ByBlock
100
AcDbLine
 10
130.0
 20
-49.99999899999966
 30
0.0
 11
199.9999990000001
 21
-49.99999899999966
 31
0.0
  0
LINE
  5
26C6
330
26AD
100
AcDbEntity
  8
KYU-JIS
  6
ByBlock
100
AcDbLine
 10
100.0
 20
-25.0
 30
0.0
 11
100.0
 21
25.0
 31
0.0
  0
LINE
  5
26C7
330
26AD
100
AcDbEntity
  8
SIN-JIS
  6
ByBlock
100
AcDbLine
 10
149.9999990000001
 20
-59.99999899999966
 30
0.0
 11
149.9999990000001
 21
10.0
 31
0.0
  0
CIRCLE
  5
26C8
330
26AD
100
AcDbEntity
  8
KYU-JIS
  6
ByBlock
100
AcDbCircle
 10
142.000121
 20
-49.99999899999966
 30
0.0
 40
8.0
  0
CIRCLE
  5
26C9
330
26AD
100
AcDbEntity
  8
KYU-JIS
  6
ByBlock
100
AcDbCircle
 10
142.000121
 20
0.0
 30
0.0
 40
8.0
  0
LINE
  5
26CA
330
26AD
100
AcDbEntity
  8
SIN-JIS
  6
ByBlock
100
AcDbLine
 10
179.9999990000001
 20
-59.99999899999966
 30
0.0
 11
179.9999990000001
 21
10.0
 31
0.0
  0
LINE
  5
26CB
330
26AD
100
AcDbEntity
  8
SIN-JIS
  6
ByBlock
100
AcDbLine
 10
164.9999990000001
 20
-59.99999899999966
 30
0.0
 11
164.9999990000001
 21
10.0
 31
0.0
  0
ENDBLK
  5
26CD
330
26AD
100
AcDbEntity
  8
0
100
AcDbBlockEnd
  0
BLOCK
  5
26EE
330
26CF
100
AcDbEntity
  8
0
100
AcDbBlockBegin
  2
UJEB6
 70
     0
 10
0.0
 20
0.0
 30
0.0
  3
UJEB6
  1

  0
LINE
  5
26D0
330
26CF
100
AcDbEntity
  8
SIN-JIS
  6
ByBlock
100
AcDbLine
 10
-0.0000010000003385
 20
-50.0
 30
0.0
 11
-60.00000100000034
 21
-50.0
 31
0.0
  0
LINE
  5
26D1
330
26CF
100
AcDbEntity
  8
SIN-JIS
  6
ByBlock
100
AcDbLine
 10
-50.00000100000034
 20
-75.0
 30
0.0
 11
-130.0000000000009
 21
-50.0
 31
0.0
  0
LINE
  5
26D2
330
26CF
100
AcDbEntity
  8
SIN-JIS
  6
ByBlock
100
AcDbLine
 10
-0.0000010000003385
 20
-0.0000010000003385
 30
0.0
 11
-60.00000100000034
 21
-0.0000010000003385
 31
0.0
  0
LINE
  5
26D3
330
26CF
100
AcDbEntity
  8
SIN-JIS
  6
ByBlock
100
AcDbLine
 10
-50.00000100000034
 20
-25.0
 30
0.0
 11
-130.0000000000009
 21
-0.0000010000003385
 31
0.0
  0
CIRCLE
  5
26D4
330
26CF
100
AcDbEntity
  8
KYU-JIS
  6
ByBlock
100
AcDbCircle
 10
-58.00018400000045
 20
0.0
 30
0.0
 40
8.0
  0
CIRCLE
  5
26D5
330
26CF
100
AcDbEntity
  8
KYU-JIS
  6
ByBlock
100
AcDbCircle
 10
-58.00018400000045
 20
-49.99999899999966
 30
0.0
 40
8.0
  0
LINE
  5
26D6
330
26CF
100
AcDbEntity
  8
SIN-JIS
  6
ByBlock
100
AcDbLine
 10
-149.9999990000005
 20
-60.0
 30
0.0
 11
-149.9999990000005
 21
9.999998999999661
 31
0.0
  0
LINE
  5
26D7
330
26CF
100
AcDbEntity
  8
SIN-JIS
  6
ByBlock
100
AcDbLine
 10
-164.9999990000005
 20
-60.0
 30
0.0
 11
-164.9999990000005
 21
9.999998999999661
 31
0.0
  0
LINE
  5
26D8
330
26CF
100
AcDbEntity
  8
SIN-JIS
  6
ByBlock
100
AcDbLine
 10
-179.9999990000005
 20
-60.0
 30
0.0
 11
-179.9999990000005
 21
9.999998999999661
 31
0.0
  0
LWPOLYLINE
  5
26D9
330
26CF
100
AcDbEntity
  8
SIN-JIS
  6
HIDDEN
100
AcDbPolyline
 90
        4
 70
     0
 43
0.0
 10
-80.0000000000009
 20
-15.62500100000034
 10
-80.0000000000009
 20
19.99999899999966
 10
-164.9999990000005
 20
19.99999899999966
 10
-164.9999990000005
 20
-0.0000010000003385
  0
LINE
  5
26DA
330
26CF
100
AcDbEntity
  8
KYU-JIS
  6
ByBlock
100
AcDbLine
 10
-100.0
 20
-25.0
 30
0.0
 11
-100.0
 21
25.0
 31
0.0
  0
LWPOLYLINE
  5
26DB
330
26CF
100
AcDbEntity
  8
KYU-JIS
  6
ByBlock
100
AcDbPolyline
 90
        5
 70
     0
 43
0.0
 10
-159.9999990000005
 20
20.0
 10
-167.4999990000005
 20
-69.99999899999966
 10
-174.9999990000005
 20
20.0
 10
-182.4999990000005
 20
-69.99999899999966
 10
-189.9999990000005
 20
20.0
  0
ARC
  5
26DC
330
26CF
100
AcDbEntity
  8
KYU-JIS
  6
ByBlock
100
AcDbCircle
 10
-100.0
 20
-85.83328099999972
 30
0.0
 40
60.83331999999999
100
AcDbArc
 50
51.84115999999999
 51
128.1588439999999
  0
LINE
  5
26DD
330
26CF
100
AcDbEntity
  8
SIN-JIS
  6
ByBlock
100
AcDbLine
 10
-130.0000000000009
 20
-50.0
 30
0.0
 11
-199.9999990000005
 21
-50.0
 31
0.0
  0
ARC
  5
26DE
330
26CF
100
AcDbEntity
  8
SIN-JIS
  6
ByBlock
100
AcDbCircle
 10
-172.4999990000005
 20
-60.0
 30
0.0
 40
7.5
100
AcDbArc
 50
180.0
 51
0.0
  0
LINE
  5
26DF
330
26CF
100
AcDbEntity
  8
KYU-JIS
  6
ByBlock
100
AcDbLine
 10
-199.9999990000005
 20
-49.99999899999966
 30
0.0
 11
-149.9999990000005
 21
-49.99999899999966
 31
0.0
  0
ARC
  5
26E0
330
26CF
100
AcDbEntity
  8
SIN-JIS
  6
ByBlock
100
AcDbCircle
 10
-157.4999990000005
 20
-60.0
 30
0.0
 40
7.5
100
AcDbArc
 50
180.0
 51
0.0
  0
CIRCLE
  5
26E1
330
26CF
100
AcDbEntity
  8
KYU-JIS
  6
ByBlock
100
AcDbCircle
 10
-142.0001210000009
 20
-49.99999899999966
 30
0.0
 40
8.0
  0
LINE
  5
26E2
330
26CF
100
AcDbEntity
  8
SIN-JIS
  6
ByBlock
100
AcDbLine
 10
-68.00003100000049
 20
-57.99987800000053
 30
0.0
 11
-51.99997000000076
 21
-42.00012200000037
 31
0.0
  0
LINE
  5
26E3
330
26CF
100
AcDbEntity
  8
SIN-JIS
  6
ByBlock
100
AcDbLine
 10
-51.99997000000076
 20
-57.99987800000053
 30
0.0
 11
-68.00003100000049
 21
-42.00012200000037
 31
0.0
  0
LINE
  5
26E4
330
26CF
100
AcDbEntity
  8
SIN-JIS
  6
HIDDEN
100
AcDbLine
 10
-80.0000000000009
 20
-65.625
 30
0.0
 11
-80.0000000000009
 21
-15.62500100000034
 31
0.0
  0
LWPOLYLINE
  5
26E5
330
26CF
100
AcDbEntity
  8
KYU-JIS
  6
ByBlock
100
AcDbPolyline
 90
        4
 70
     0
 43
0.0
 10
-100.0
 20
25.0
 10
-100.0
 20
30.0
 10
-174.9999990000005
 20
30.0
 10
-174.9999990000005
 20
20.0
  0
ARC
  5
26E6
330
26CF
100
AcDbEntity
  8
KYU-JIS
  6
ByBlock
100
AcDbCircle
 10
-100.0
 20
-35.83328199999959
 30
0.0
 40
60.83331999999999
100
AcDbArc
 50
51.84115999999999
 51
128.1588439999999
  0
LINE
  5
26E7
330
26CF
100
AcDbEntity
  8
SIN-JIS
  6
ByBlock
100
AcDbLine
 10
-130.0000000000009
 20
-0.0000010000003385
 30
0.0
 11
-199.9999990000005
 21
-0.0000010000003385
 31
0.0
  0
LINE
  5
26E8
330
26CF
100
AcDbEntity
  8
KYU-JIS
  6
ByBlock
100
AcDbLine
 10
-199.9999990000005
 20
0.0
 30
0.0
 11
-149.9999990000005
 21
0.0
 31
0.0
  0
CIRCLE
  5
26E9
330
26CF
100
AcDbEntity
  8
KYU-JIS
  6
ByBlock
100
AcDbCircle
 10
-142.0001210000009
 20
0.0
 30
0.0
 40
8.0
  0
LINE
  5
26EA
330
26CF
100
AcDbEntity
  8
SIN-JIS
  6
ByBlock
100
AcDbLine
 10
-68.00003100000049
 20
-7.999878999999964
 30
0.0
 11
-51.99997000000076
 21
7.999876999999742
 31
0.0
  0
LINE
  5
26EB
330
26CF
100
AcDbEntity
  8
SIN-JIS
  6
ByBlock
100
AcDbLine
 10
-51.99997000000076
 20
-7.999878999999964
 30
0.0
 11
-68.00003100000049
 21
7.999876999999742
 31
0.0
  0
LINE
  5
26EC
330
26CF
100
AcDbEntity
  8
KYU-JIS
  6
ByBlock
100
AcDbLine
 10
-50.00000100000034
 20
-49.99999899999966
 30
0.0
 11
-0.0000010000003385
 21
-49.99999899999966
 31
0.0
  0
LINE
  5
26ED
330
26CF
100
AcDbEntity
  8
KYU-JIS
  6
ByBlock
100
AcDbLine
 10
-50.00000100000034
 20
0.0
 30
0.0
 11
-0.0000010000003385
 21
0.0
 31
0.0
  0
ENDBLK
  5
26EF
330
26CF
100
AcDbEntity
  8
0
100
AcDbBlockEnd
  0
BLOCK
  5
29C8
330
29C5
100
AcDbEntity
  8
0
100
AcDbBlockBegin
  2
SYO002
 70
     0
 10
0.0
 20
0.0
 30
0.0
  3
SYO002
  1

  0
CIRCLE
  5
29C6
330
29C5
100
AcDbEntity
  8
0
100
AcDbCircle
 10
0.0
 20
0.0
 30
0.0
 40
0.4
  0
CIRCLE
  5
29C7
330
29C5
100
AcDbEntity
  8
0
100
AcDbCircle
 10
0.0
 20
0.0
 30
0.0
 40
0.5
  0
ENDBLK
  5
29C9
330
29C5
100
AcDbEntity
  8
0
100
AcDbBlockEnd
  0
BLOCK
  5
2AF4
330
2AF2
100
AcDbEntity
  8
0
100
AcDbBlockBegin
  2
SYO001
 70
     0
 10
0.0
 20
0.0
 30
0.0
  3
SYO001
  1

  0
CIRCLE
  5
2AF3
330
2AF2
100
AcDbEntity
  8
0
100
AcDbCircle
 10
0.0
 20
0.0
 30
0.0
 40
0.5
  0
ENDBLK
  5
2AF5
330
2AF2
100
AcDbEntity
  8
0
100
AcDbBlockEnd
  0
BLOCK
  5
2DF8
330
2DF4
100
AcDbEntity
  8
0
 62
     7
100
AcDbBlockBegin
  2
P10
 70
     0
 10
0.0
 20
0.0
 30
0.0
  3
P10
  1

  0
LINE
  5
2DF5
330
2DF4
100
AcDbEntity
  8
JIS
  6
Continuous
 62
     7
100
AcDbLine
 10
-10.0
 20
-10.0
 30
0.0
 11
10.0
 21
-10.0
 31
0.0
  0
LINE
  5
2DF6
330
2DF4
100
AcDbEntity
  8
JIS
  6
Continuous
 62
     7
100
AcDbLine
 10
-20.0
 20
0.0
 30
0.0
 11
20.0
 21
0.0
 31
0.0
  0
LINE
  5
2DF7
330
2DF4
100
AcDbEntity
  8
JIS
  6
Continuous
 62
     7
100
AcDbLine
 10
-5.0
 20
-20.0
 30
0.0
 11
5.0
 21
-20.0
 31
0.0
  0
ENDBLK
  5
2DF9
330
2DF4
100
AcDbEntity
  8
0
 62
     7
100
AcDbBlockEnd
  0
BLOCK
  5
2DFC
330
2DFA
100
AcDbEntity
  8
0
100
AcDbBlockBegin
  2
AN07
 70
     0
 10
0.0
 20
0.0
 30
0.0
  3
AN07
  1

  0
INSERT
  5
2DFB
330
2DFA
100
AcDbEntity
  8
C-CIRCUIT
  6
ByBlock
 62
     7
100
AcDbBlockReference
  2
P10
 10
0.0
 20
0.0
 30
0.0
  0
ENDBLK
  5
2DFD
330
2DFA
100
AcDbEntity
  8
0
100
AcDbBlockEnd
  0
BLOCK
  5
3044
330
3043
100
AcDbEntity
  8
0
100
AcDbBlockBegin
  2
2409618
 70
     0
 10
0.0
 20
0.0
 30
0.0
  3
2409618
  1
C:\Zumen\8160628島根小学校改築電気設備工事\2LW-1・2T-1\2409618.dwg
  0
POINT
  5
340D
330
3043
100
AcDbEntity
  8
TEN
  6
Continuous
 62
     4
100
AcDbPoint
 10
3782.0
 20
103.0
 30
0.0
  0
POINT
  5
340E
330
3043
100
AcDbEntity
  8
TEN
  6
Continuous
 62
     4
100
AcDbPoint
 10
3781.0
 20
215.0
 30
0.0
  0
POINT
  5
340F
330
3043
100
AcDbEntity
  8
TEN
  6
Continuous
 62
     4
100
AcDbPoint
 10
4018.0
 20
80.12500000000001
 30
0.0
  0
POINT
  5
3410
330
3043
100
AcDbEntity
  8
TEN
  6
Continuous
 62
     4
100
AcDbPoint
 10
3990.0
 20
124.375
 30
0.0
  0
POINT
  5
3411
330
3043
100
AcDbEntity
  8
TEN
  6
Continuous
 62
     4
100
AcDbPoint
 10
1652.2
 20
187.3999999999999
 30
0.0
  0
POINT
  5
3412
330
3043
100
AcDbEntity
  8
TEN
  6
Continuous
 62
     4
100
AcDbPoint
 10
1710.0
 20
187.1
 30
0.0
  0
POINT
  5
3413
330
3043
100
AcDbEntity
  8
TEN
  6
Continuous
 62
     4
100
AcDbPoint
 10
1767.8
 20
186.8
 30
0.0
  0
LWPOLYLINE
  5
3414
102
{ACAD_REACTORS
330
3479
102
}
330
3043
100
AcDbEntity
  8
WAKU
  6
Continuous
 62
     7
100
AcDbPolyline
 90
       70
 70
     1
 43
0.0
 10
1869.39
 20
108.4624190070459
 10
1868.95046664168
 20
107.893481361466
 10
1868.195926382809
 20
107.118483114415
 10
1867.36244213045
 20
106.4822917315619
 10
1866.466236707499
 20
105.997289954516
 10
1865.524753733089
 20
105.672917791188
 10
1864.55631810239
 20
105.5154887767669
 10
1863.579779313389
 20
105.528067087948
 10
1862.61414458282
 20
105.71040790221
 10
1861.6782088923
 20
106.058962163013
 10
1860.79018916545
 20
106.566945658146
 10
1859.967369696139
 20
107.224471066698
 10
1859.2257657294
 20
108.018740404517
 10
1858.57981174287
 20
108.934294122408
 10
1858.04208049616
 20
109.9533120086809
 10
1857.6230383163
 20
111.055960039295
 10
1857.33084138268
 20
112.220776424578
 10
1857.17117697625
 20
113.425089338548
 10
1857.14715278305
 20
114.6454582002219
 10
1857.259236406689
 20
115.858129917856
 10
1857.50524626691
 20
117.039501215859
 10
1857.88039406164
 20
118.1665780457059
 10
1858.37737796575
 20
119.217423138934
 10
1858.98652475288
 20
120.171582991124
 10
1859.695978073699
 20
121.010485966092
 10
1860.49192922631
 20
121.717803771669
 10
1861.35888592692
 20
122.2797692713309
 10
1862.27997384949
 20
122.6854444458539
 10
1863.23726506533
 20
122.9269332894139
 10
1864.21212698983
 20
122.999535496362
 10
1865.18558504451
 20
122.9018379473209
 10
1866.13869197564
 20
122.635742213956
 10
1867.05289664094
 20
122.2064275470369
 10
1867.9104050865
 20
121.622250068216
 10
1868.694526885819
 20
120.894580127628
 10
1869.39
 20
120.0375809929539
 10
1869.39
 20
124.858811196359
 10
1868.15817603983
 20
125.567524273263
 10
1866.85759997358
 20
126.082591372041
 10
1865.51052501831
 20
126.3951995518289
 10
1864.14
 20
126.5
 10
1862.769474981689
 20
126.3951995518289
 10
1861.422400026419
 20
126.082591372041
 10
1860.121823960169
 20
125.567524273263
 10
1858.89
 20
124.858811196359
 10
1857.74800499541
 20
123.968578418568
 10
1856.71537879754
 20
122.912058069535
 10
1855.80978992694
 20
121.7073275053569
 10
1855.04673326026
 20
120.375
 10
1854.439264908629
 20
118.9378720464719
 10
1853.99777882397
 20
117.4205333025059
 10
1853.72982895558
 20
115.8489458546959
 10
1853.64
 20
114.25
 10
1853.72982895558
 20
112.6510541453049
 10
1853.99777882397
 20
111.0794666974939
 10
1854.439264908629
 20
109.5621279535279
 10
1855.04673326026
 20
108.125
 10
1855.80978992694
 20
106.7926724946429
 10
1856.71537879754
 20
105.587941930465
 10
1857.74800499541
 20
104.5314215814319
 10
1858.89
 20
103.6411888036409
 10
1860.121823960169
 20
102.9324757267369
 10
1861.422400026419
 20
102.4174086279589
 10
1862.769474981689
 20
102.104800448171
 10
1864.14
 20
102.0
 10
1865.51052501831
 20
102.104800448171
 10
1866.85759997358
 20
102.4174086279589
 10
1868.15817603983
 20
102.9324757267369
 10
1869.39
 20
103.6411888036409
 10
1869.39
 20
103.6411888036409
  0
LWPOLYLINE
  5
3415
102
{ACAD_REACTORS
330
347A
102
}
330
3043
100
AcDbEntity
  8
WAKU
  6
Continuous
 62
     7
100
AcDbPolyline
 90
       46
 70
     0
 43
0.0
 10
1932.25
 20
114.25
 10
1932.19890736089
 20
115.4677646334009
 10
1932.04662390368
 20
116.661826863399
 10
1931.79611365262
 20
117.808945626913
 10
1931.45225250482
 20
118.886793562041
 10
1931.02173332638
 20
119.8743915847569
 10
1930.512935683379
 20
120.7525172229269
 10
1929.93576274322
 20
121.504078759857
 10
1929.30144852064
 20
122.114447905118
 10
1928.62233922047
 20
122.571744517583
 10
1927.911652932749
 20
122.8670678388569
 10
1927.18322235769
 20
122.9946697364169
 10
1926.45122556785
 20
122.9520665844719
 10
1925.7299100481
 20
122.740087604915
 10
1925.03331538457
 20
122.3628587274589
 10
1924.375
 20
121.8277222831139
 10
1923.767777254539
 20
121.145094094059
 10
1923.223466048219
 20
120.328260741516
 10
1922.752660779529
 20
119.393120957559
 10
1922.36452513749
 20
118.357876174377
 10
1922.066613740869
 20
117.2426762540999
 10
1921.864725096149
 20
116.0692272946549
 10
1921.762788736139
 20
114.8603691452609
 10
1921.762788736139
 20
113.6396308547389
 10
1921.864725096149
 20
112.430772705345
 10
1922.066613740869
 20
111.2573237458999
 10
1922.36452513749
 20
110.142123825624
 10
1922.752660779529
 20
109.106879042441
 10
1923.223466048219
 20
108.171739258484
 10
1923.767777254539
 20
107.3549059059409
 10
1924.375
 20
106.6722777168859
 10
1925.03331538457
 20
106.137141272541
 10
1925.7299100481
 20
105.7599123950849
 10
1926.45122556785
 20
105.547933415528
 10
1927.18322235769
 20
105.5053302635829
 10
1927.911652932749
 20
105.632932161143
 10
1928.62233922047
 20
105.9282554824169
 10
1929.30144852064
 20
106.385552094882
 10
1929.93576274322
 20
106.995921240143
 10
1930.512935683379
 20
107.747482777073
 10
1931.02173332638
 20
108.625608415243
 10
1931.45225250482
 20
109.6132064379599
 10
1931.79611365262
 20
110.691054373087
 10
1932.04662390368
 20
111.838173136601
 10
1932.19890736089
 20
113.032235366599
 10
1932.25
 20
114.25
  0
LWPOLYLINE
  5
3416
102
{ACAD_REACTORS
330
347A
102
}
330
3043
100
AcDbEntity
  8
WAKU
  6
Continuous
 62
     7
100
AcDbPolyline
 90
       49
 70
     0
 43
0.0
 10
1927.0
 20
126.5
 10
1925.85789581807
 20
126.3951995518289
 10
1924.73533335535
 20
126.082591372041
 10
1923.65151996681
 20
125.567524273263
 10
1922.625
 20
124.858811196359
 10
1921.67333749617
 20
123.968578418568
 10
1920.81281566462
 20
122.912058069535
 10
1920.05815827245
 20
121.7073275053569
 10
1919.42227771689
 20
120.375
 10
1918.91605409053
 20
118.9378720464719
 10
1918.54814901997
 20
117.4205333025059
 10
1918.324857462979
 20
115.8489458546959
 10
1918.25
 20
114.25
 10
1918.324857462979
 20
112.6510541453039
 10
1918.54814901997
 20
111.0794666974939
 10
1918.91605409053
 20
109.5621279535279
 10
1919.42227771689
 20
108.125
 10
1920.05815827245
 20
106.7926724946429
 10
1920.81281566462
 20
105.587941930465
 10
1921.67333749617
 20
104.5314215814319
 10
1922.625
 20
103.6411888036409
 10
1923.65151996681
 20
102.9324757267369
 10
1924.73533335535
 20
102.4174086279589
 10
1925.85789581807
 20
102.104800448171
 10
1927.0
 20
102.0
 10
1928.142104181929
 20
102.104800448171
 10
1929.264666644649
 20
102.4174086279589
 10
1930.34848003319
 20
102.9324757267369
 10
1931.375
 20
103.6411888036409
 10
1932.326662503829
 20
104.5314215814319
 10
1933.18718433538
 20
105.587941930465
 10
1933.94184172755
 20
106.7926724946429
 10
1934.577722283109
 20
108.125
 10
1935.08394590947
 20
109.5621279535279
 10
1935.45185098003
 20
111.0794666974939
 10
1935.67514253702
 20
112.6510541453039
 10
1935.75
 20
114.25
 10
1935.67514253702
 20
115.8489458546959
 10
1935.45185098003
 20
117.4205333025059
 10
1935.08394590947
 20
118.9378720464719
 10
1934.577722283109
 20
120.375
 10
1933.94184172755
 20
121.7073275053569
 10
1933.18718433538
 20
122.912058069535
 10
1932.326662503829
 20
123.968578418568
 10
1931.375
 20
124.858811196359
 10
1930.34848003319
 20
125.567524273263
 10
1929.264666644649
 20
126.082591372041
 10
1928.142104181929
 20
126.3951995518289
 10
1927.0
 20
126.5
  0
LWPOLYLINE
  5
3417
102
{ACAD_REACTORS
330
347A
102
}
330
3043
100
AcDbEntity
  8
WAKU
  6
Continuous
 62
     7
100
AcDbPolyline
 90
       11
 70
     0
 43
0.0
 10
1937.5
 20
102.0
 10
1941.0
 20
102.0
 10
1941.0
 20
119.5
 10
1951.5
 20
102.0
 10
1955.0
 20
102.0
 10
1955.0
 20
126.5
 10
1951.5
 20
126.5
 10
1951.5
 20
109.0
 10
1941.0
 20
126.5
 10
1937.5
 20
126.5
 10
1937.5
 20
102.0
  0
LWPOLYLINE
  5
3418
102
{ACAD_REACTORS
330
347A
102
}
330
3043
100
AcDbEntity
  8
WAKU
  6
Continuous
 62
     7
100
AcDbPolyline
 90
        5
 70
     0
 43
0.0
 10
1913.0
 20
126.5
 10
1913.0
 20
102.0
 10
1916.5
 20
102.0
 10
1916.5
 20
126.5
 10
1913.0
 20
126.5
  0
LWPOLYLINE
  5
3419
102
{ACAD_REACTORS
330
347A
102
}
330
3043
100
AcDbEntity
  8
WAKU
  6
Continuous
 62
     7
100
AcDbPolyline
 90
        7
 70
     0
 43
0.0
 10
1902.5
 20
126.5
 10
1902.5
 20
105.4999999999999
 10
1909.499999999999
 20
105.4999999999999
 10
1909.499999999999
 20
102.0
 10
1899.0
 20
102.0
 10
1899.0
 20
126.5
 10
1902.5
 20
126.5
  0
LWPOLYLINE
  5
341A
102
{ACAD_REACTORS
330
347A
102
}
330
3043
100
AcDbEntity
  8
WAKU
  6
Continuous
 62
     7
100
AcDbPolyline
 90
       13
 70
     0
 43
0.0
 10
1888.5
 20
102.0
 10
1874.5
 20
102.0
 10
1874.5
 20
126.5
 10
1888.5
 20
126.5
 10
1888.5
 20
123.0
 10
1878.0
 20
123.0
 10
1878.0
 20
116.0
 10
1888.5
 20
116.0
 10
1888.5
 20
112.5
 10
1878.0
 20
112.5
 10
1878.0
 20
105.4999999999999
 10
1888.5
 20
105.4999999999999
 10
1888.5
 20
102.0
  0
POINT
  5
341B
330
3043
100
AcDbEntity
  8
TEN
  6
Continuous
 62
     4
100
AcDbPoint
 10
1652.2
 20
77.30000000000001
 30
0.0
  0
POINT
  5
341C
330
3043
100
AcDbEntity
  8
TEN
  6
Continuous
 62
     4
100
AcDbPoint
 10
1710.0
 20
77.0
 30
0.0
  0
POINT
  5
341D
330
3043
100
AcDbEntity
  8
TEN
  6
Continuous
 62
     4
100
AcDbPoint
 10
1767.8
 20
76.7
 30
0.0
  0
CIRCLE
  5
341E
330
3043
100
AcDbEntity
  8
WAKU
  6
Continuous
 62
     2
100
AcDbCircle
 10
1740.0
 20
69.5
 30
0.0
 40
3.0
  0
CIRCLE
  5
341F
330
3043
100
AcDbEntity
  8
WAKU
  6
Continuous
 62
     2
100
AcDbCircle
 10
1680.0
 20
69.5
 30
0.0
 40
3.0
  0
POINT
  5
3420
330
3043
100
AcDbEntity
  8
TEN
  6
Continuous
 62
     4
100
AcDbPoint
 10
3459.0
 20
104.0
 30
0.0
  0
POINT
  5
3421
330
3043
100
AcDbEntity
  8
TEN
  6
Continuous
 62
     4
100
AcDbPoint
 10
1510.0
 20
83.0
 30
0.0
  0
POINT
  5
3422
330
3043
100
AcDbEntity
  8
TEN
  6
Continuous
 62
     4
100
AcDbPoint
 10
1515.0
 20
194.0
 30
0.0
  0
POINT
  5
3423
330
3043
100
AcDbEntity
  8
TEN
  6
Continuous
 62
     4
100
AcDbPoint
 10
1738.0
 20
243.0
 30
0.0
  0
POINT
  5
3424
330
3043
100
AcDbEntity
  8
TEN
  6
Continuous
 62
     4
100
AcDbPoint
 10
1734.0
 20
131.0
 30
0.0
  0
POINT
  5
3425
330
3043
100
AcDbEntity
  8
TEN
  6
Continuous
 62
     4
100
AcDbPoint
 10
2839.0
 20
99.0
 30
0.0
  0
POINT
  5
3426
330
3043
100
AcDbEntity
  8
TEN
  6
Continuous
 62
     4
100
AcDbPoint
 10
3074.0
 20
211.0
 30
0.0
  0
POINT
  5
3427
330
3043
100
AcDbEntity
  8
TEN
  6
Continuous
 62
     4
100
AcDbPoint
 10
3220.0
 20
103.0
 30
0.0
  0
POINT
  5
3428
330
3043
100
AcDbEntity
  8
TEN
  6
Continuous
 62
     4
100
AcDbPoint
 10
3648.0
 20
103.0
 30
0.0
  0
POINT
  5
3429
330
3043
100
AcDbEntity
  8
TEN
  6
Continuous
 62
     4
100
AcDbPoint
 10
3647.0
 20
215.0
 30
0.0
  0
TEXT
  5
342A
330
3043
100
AcDbEntity
  8
WAKU
  6
Continuous
 62
     1
100
AcDbText
 10
3859.0
 20
2832.0
 30
0.0
 40
25.0
  1
８
 41
0.84
  7
EXCADSTD
100
AcDbText
  0
TEXT
  5
342C
330
3043
100
AcDbEntity
  8
WAKU
  6
Continuous
 62
     1
100
AcDbText
 10
3392.0
 20
2837.0
 30
0.0
 40
25.0
  1
７
 41
0.84
  7
EXCADSTD
100
AcDbText
  0
TEXT
  5
342D
330
3043
100
AcDbEntity
  8
WAKU
  6
Continuous
 62
     1
100
AcDbText
 10
2887.0
 20
2837.0
 30
0.0
 40
25.0
  1
６
 41
0.84
  7
EXCADSTD
100
AcDbText
  0
TEXT
  5
342E
330
3043
100
AcDbEntity
  8
WAKU
  6
Continuous
 62
     1
100
AcDbText
 10
2376.0
 20
2837.0
 30
0.0
 40
25.0
  1
５
 41
0.84
  7
EXCADSTD
100
AcDbText
  0
TEXT
  5
342F
330
3043
100
AcDbEntity
  8
WAKU
  6
Continuous
 62
     1
100
AcDbText
 10
1890.0
 20
2837.0
 30
0.0
 40
25.0
  1
４
 41
0.84
  7
EXCADSTD
100
AcDbText
  0
TEXT
  5
3430
330
3043
100
AcDbEntity
  8
WAKU
  6
Continuous
 62
     1
100
AcDbText
 10
1375.0
 20
2837.0
 30
0.0
 40
25.0
  1
３
 41
0.84
  7
EXCADSTD
100
AcDbText
  0
TEXT
  5
3431
330
3043
100
AcDbEntity
  8
WAKU
  6
Continuous
 62
     1
100
AcDbText
 10
879.0
 20
2837.0
 30
0.0
 40
25.0
  1
２
 41
0.84
  7
EXCADSTD
100
AcDbText
  0
TEXT
  5
3432
330
3043
100
AcDbEntity
  8
WAKU
  6
Continuous
 62
     1
100
AcDbText
 10
378.0
 20
2837.0
 30
0.0
 40
25.0
  1
１
 41
0.84
  7
EXCADSTD
100
AcDbText
  0
TEXT
  5
3433
330
3043
100
AcDbEntity
  8
WAKU
  6
Continuous
 62
     1
100
AcDbText
 10
123.0
 20
520.0
 30
0.0
 40
25.0
  1
Ｅ
 41
0.84
  7
EXCADSTD
100
AcDbText
  0
TEXT
  5
3434
330
3043
100
AcDbEntity
  8
WAKU
  6
Continuous
 62
     1
100
AcDbText
 10
118.0
 20
1025.0
 30
0.0
 40
25.0
  1
Ｄ
 41
0.84
  7
EXCADSTD
100
AcDbText
  0
TEXT
  5
3435
330
3043
100
AcDbEntity
  8
WAKU
  6
Continuous
 62
     1
100
AcDbText
 10
123.0
 20
1531.0
 30
0.0
 40
25.0
  1
Ｃ
 41
0.84
  7
EXCADSTD
100
AcDbText
  0
TEXT
  5
3436
330
3043
100
AcDbEntity
  8
WAKU
  6
Continuous
 62
     1
100
AcDbText
 10
118.0
 20
2027.0
 30
0.0
 40
25.0
  1
Ｂ
 41
0.84
  7
EXCADSTD
100
AcDbText
  0
TEXT
  5
3437
330
3043
100
AcDbEntity
  8
WAKU
  6
Continuous
 62
     1
100
AcDbText
 10
118.0
 20
2527.0
 30
0.0
 40
25.0
  1
Ａ
 41
0.84
  7
EXCADSTD
100
AcDbText
  0
TEXT
  5
3438
330
3043
100
AcDbEntity
  8
WAKU
  6
Continuous
 62
     2
100
AcDbText
 10
1055.0
 20
170.0
 30
0.0
 40
30.0
  1
日塗工・マンセル
 41
0.84
  7
EXCADSTD
100
AcDbText
  0
TEXT
  5
3439
330
3043
100
AcDbEntity
  8
WAKU
  6
Continuous
 62
     2
100
AcDbText
 10
1056.0
 20
117.0
 30
0.0
 40
30.0
  1
外面
 41
0.84
  7
EXCADSTD
100
AcDbText
  0
LINE
  5
343A
330
3043
100
AcDbEntity
  8
WAKU
  6
DOT
 62
     3
100
AcDbLine
 10
210.0
 20
110.0
 30
0.0
 11
1401.0
 21
110.0
 31
0.0
  0
LINE
  5
343B
330
3043
100
AcDbEntity
  8
WAKU
  6
DOT
 62
     3
100
AcDbLine
 10
210.0
 20
210.0
 30
0.0
 11
1050.0
 21
210.0
 31
0.0
  0
LINE
  5
343C
330
3043
100
AcDbEntity
  8
WAKU
  6
Continuous
 62
     1
100
AcDbLine
 10
150.0
 20
320.0
 30
0.0
 11
170.0
 21
320.0
 31
0.0
  0
LINE
  5
343D
330
3043
100
AcDbEntity
  8
WAKU
  6
Continuous
 62
     1
100
AcDbLine
 10
150.0
 20
820.0
 30
0.0
 11
170.0
 21
820.0
 31
0.0
  0
LINE
  5
343E
330
3043
100
AcDbEntity
  8
WAKU
  6
Continuous
 62
     1
100
AcDbLine
 10
150.0
 20
1320.0
 30
0.0
 11
170.0
 21
1320.0
 31
0.0
  0
LINE
  5
343F
330
3043
100
AcDbEntity
  8
WAKU
  6
Continuous
 62
     1
100
AcDbLine
 10
150.0
 20
1820.0
 30
0.0
 11
170.0
 21
1820.0
 31
0.0
  0
LINE
  5
3440
330
3043
100
AcDbEntity
  8
WAKU
  6
Continuous
 62
     1
100
AcDbLine
 10
150.0
 20
2320.0
 30
0.0
 11
170.0
 21
2320.0
 31
0.0
  0
LINE
  5
3441
330
3043
100
AcDbEntity
  8
WAKU
  6
Continuous
 62
     1
100
AcDbLine
 10
3650.0
 20
2820.0
 30
0.0
 11
3650.0
 21
2800.0
 31
0.0
  0
LINE
  5
3442
330
3043
100
AcDbEntity
  8
WAKU
  6
Continuous
 62
     1
100
AcDbLine
 10
3150.0
 20
2820.0
 30
0.0
 11
3150.0
 21
2800.0
 31
0.0
  0
LINE
  5
3443
330
3043
100
AcDbEntity
  8
WAKU
  6
Continuous
 62
     1
100
AcDbLine
 10
2650.0
 20
2820.0
 30
0.0
 11
2650.0
 21
2800.0
 31
0.0
  0
LINE
  5
3444
330
3043
100
AcDbEntity
  8
WAKU
  6
Continuous
 62
     1
100
AcDbLine
 10
2150.0
 20
2820.0
 30
0.0
 11
2150.0
 21
2800.0
 31
0.0
  0
LINE
  5
3445
330
3043
100
AcDbEntity
  8
WAKU
  6
Continuous
 62
     1
100
AcDbLine
 10
1650.0
 20
2820.0
 30
0.0
 11
1650.0
 21
2800.0
 31
0.0
  0
LINE
  5
3446
330
3043
100
AcDbEntity
  8
WAKU
  6
Continuous
 62
     1
100
AcDbLine
 10
1150.0
 20
2820.0
 30
0.0
 11
1150.0
 21
2800.0
 31
0.0
  0
LINE
  5
3447
330
3043
100
AcDbEntity
  8
WAKU
  6
Continuous
 62
     1
100
AcDbLine
 10
650.0
 20
2820.0
 30
0.0
 11
650.0
 21
2800.0
 31
0.0
  0
POINT
  5
3448
330
3043
100
AcDbEntity
  8
TEN
  6
Continuous
 62
     4
100
AcDbPoint
 10
1820.172203531769
 20
221.000000000001
 30
0.0
  0
TEXT
  5
3449
330
3043
100
AcDbEntity
  8
WAKU
  6
Continuous
 62
     2
100
AcDbText
 10
3084.0
 20
89.0
 30
0.0
 40
30.0
  1
記号
 41
0.98
  7
EXCADSTD
100
AcDbText
  0
LINE
  5
344A
330
3043
100
AcDbEntity
  8
WAKU
  6
Continuous
 62
     3
100
AcDbLine
 10
3074.999968
 20
51.0
 30
0.0
 11
3074.999968
 21
160.4999999999999
 31
0.0
  0
LINE
  5
344B
330
3043
100
AcDbEntity
  8
WAKU
  6
Continuous
 62
     5
100
AcDbLine
 10
1918.89537202802
 20
179.7759999999999
 30
0.0
 11
1920.05588952606
 21
180.936517498042
 31
0.0
  0
CIRCLE
  5
344C
330
3043
100
AcDbEntity
  8
WAKU
  6
Continuous
 62
     2
100
AcDbCircle
 10
1740.0
 20
179.4999999999999
 30
0.0
 40
3.0
  0
CIRCLE
  5
344D
330
3043
100
AcDbEntity
  8
WAKU
  6
Continuous
 62
     2
100
AcDbCircle
 10
1680.0
 20
179.4999999999999
 30
0.0
 40
3.0
  0
TEXT
  5
344E
330
3043
100
AcDbEntity
  8
WAKU
  6
Continuous
 62
     2
100
AcDbText
 10
177.991667
 20
249.0
 30
0.0
 40
31.5
  1
変更記事
 41
0.8
  7
EXCADVERT
100
AcDbText
  0
LINE
  5
3450
330
3043
100
AcDbEntity
  8
WAKU
  6
Continuous
 62
     3
100
AcDbLine
 10
4032.0
 20
146.5
 30
0.0
 11
3976.0
 21
58.0
 31
0.0
  0
LINE
  5
3451
330
3043
100
AcDbEntity
  8
WAKU
  6
Continuous
 62
     3
100
AcDbLine
 10
2549.999968
 20
160.4999999999999
 30
0.0
 11
4050.0
 21
160.4999999999999
 31
0.0
  0
LINE
  5
3452
330
3043
100
AcDbEntity
  8
WAKU
  6
DOT
 62
     3
100
AcDbLine
 10
1671.0
 20
213.75
 30
0.0
 11
1799.999975
 21
213.75
 31
0.0
  0
LINE
  5
3453
330
3043
100
AcDbEntity
  8
WAKU
  6
DOT
 62
     3
100
AcDbLine
 10
1671.0
 20
103.75
 30
0.0
 11
1799.999975
 21
103.75
 31
0.0
  0
LINE
  5
3454
330
3043
100
AcDbEntity
  8
WAKU
  6
Continuous
 62
     3
100
AcDbLine
 10
1401.0
 20
160.0
 30
0.0
 11
1799.999975
 21
160.0
 31
0.0
  0
LINE
  5
3455
330
3043
100
AcDbEntity
  8
WAKU
  6
DOT
 62
     3
100
AcDbLine
 10
210.0
 20
50.0
 30
0.0
 11
210.0
 21
270.0
 31
0.0
  0
LINE
  5
3456
330
3043
100
AcDbEntity
  8
WAKU
  6
DOT
 62
     3
100
AcDbLine
 10
210.0
 20
160.0
 30
0.0
 11
1401.0
 21
160.0
 31
0.0
  0
LINE
  5
3457
330
3043
100
AcDbEntity
  8
WAKU
  6
Continuous
 62
    11
100
AcDbLine
 10
150.0
 20
270.0
 30
0.0
 11
4050.0
 21
270.0
 31
0.0
  0
LINE
  5
3458
330
3043
100
AcDbEntity
  8
WAKU
  6
Continuous
 62
     3
100
AcDbLine
 10
1050.0
 20
270.0
 30
0.0
 11
1050.0
 21
50.0
 31
0.0
  0
LINE
  5
3459
330
3043
100
AcDbEntity
  8
WAKU
  6
Continuous
 62
     3
100
AcDbLine
 10
1400.0
 20
270.0
 30
0.0
 11
1400.0
 21
50.0
 31
0.0
  0
LINE
  5
345A
330
3043
100
AcDbEntity
  8
WAKU
  6
Continuous
 62
     3
100
AcDbLine
 10
1600.0
 20
270.0
 30
0.0
 11
1600.0
 21
50.0
 31
0.0
  0
LINE
  5
345B
330
3043
100
AcDbEntity
  8
WAKU
  6
Continuous
 62
     3
100
AcDbLine
 10
1799.999975
 20
270.0
 30
0.0
 11
1799.999975
 21
49.90000000000009
 31
0.0
  0
LINE
  5
345C
330
3043
100
AcDbEntity
  8
WAKU
  6
Continuous
 62
     3
100
AcDbLine
 10
2549.999968
 20
270.0
 30
0.0
 11
2549.999968
 21
50.0
 31
0.0
  0
TEXT
  5
345D
330
3043
100
AcDbEntity
  8
WAKU
  6
Continuous
 62
     2
100
AcDbText
 10
3310.0
 20
91.0
 30
0.0
 40
30.0
  1
製作数
 41
0.933333333333333
  7
EXCADSTD
100
AcDbText
  0
LINE
  5
345E
330
3043
100
AcDbEntity
  8
WAKU
  6
Continuous
 62
     3
100
AcDbLine
 10
3550.0
 20
160.4999999999999
 30
0.0
 11
3550.0
 21
50.0
 31
0.0
  0
LINE
  5
345F
330
3043
100
AcDbEntity
  8
WAKU
  6
Continuous
 62
     3
100
AcDbLine
 10
3300.0
 20
160.4999999999999
 30
0.0
 11
3300.0
 21
51.0
 31
0.0
  0
LINE
  5
3460
330
3043
100
AcDbEntity
  8
WAKU
  6
Continuous
 62
     3
100
AcDbLine
 10
3550.0
 20
270.0
 30
0.0
 11
3550.0
 21
160.4999999999999
 31
0.0
  0
TEXT
  5
3461
330
3043
100
AcDbEntity
  8
WAKU
  6
Continuous
 62
    11
100
AcDbText
 10
2002.0
 20
123.0
 30
0.0
 40
50.0
  1
エ－スライオン株式会社
 41
0.7636363636363641
  7
EXCADSTD
100
AcDbText
  0
TEXT
  5
3462
330
3043
100
AcDbEntity
  8
WAKU
  6
Continuous
 62
     2
100
AcDbText
 10
3559.0
 20
90.0
 30
0.0
 40
30.0
  1
図番
 41
0.98
  7
EXCADSTD
100
AcDbText
  0
TEXT
  5
3463
330
3043
100
AcDbEntity
  8
WAKU
  6
Continuous
 62
     2
100
AcDbText
 10
3504.0
 20
89.0
 30
0.0
 40
30.0
  1
面
 41
1.12
  7
EXCADSTD
100
AcDbText
  0
TEXT
  5
3464
330
3043
100
AcDbEntity
  8
WAKU
  6
Continuous
 62
     2
100
AcDbText
 10
3553.000031999999
 20
197.0000000000009
 30
0.0
 40
30.0
  1
工番
 41
0.98
  7
EXCADSTD
100
AcDbText
  0
TEXT
  5
3465
330
3043
100
AcDbEntity
  8
WAKU
  6
Continuous
 62
     2
100
AcDbText
 10
2563.0
 20
91.0
 30
0.0
 40
30.0
  1
品名
 41
0.98
  7
EXCADSTD
100
AcDbText
  0
TEXT
  5
3466
330
3043
100
AcDbEntity
  8
WAKU
  6
Continuous
 62
     2
100
AcDbText
 10
3500.000031999999
 20
197.0000000000009
 30
0.0
 40
30.0
  1
殿
 41
1.12
  7
EXCADSTD
100
AcDbText
  0
TEXT
  5
3467
330
3043
100
AcDbEntity
  8
WAKU
  6
Continuous
 62
     2
100
AcDbText
 10
2560.0
 20
200.0
 30
0.0
 40
30.0
  1
納入先
 41
0.933333333333333
  7
EXCADSTD
100
AcDbText
  0
TEXT
  5
3468
330
3043
100
AcDbEntity
  8
WAKU
  6
Continuous
 62
     2
100
AcDbText
 10
1607.0
 20
117.5
 30
0.0
 40
30.0
  1
検図
 41
0.84
  7
EXCADSTD
100
AcDbText
  0
TEXT
  5
3469
330
3043
100
AcDbEntity
  8
WAKU
  6
Continuous
 62
     2
100
AcDbText
 10
1607.0
 20
231.0
 30
0.0
 40
30.0
  1
製図
 41
0.84
  7
EXCADSTD
100
AcDbText
  0
TEXT
  5
346A
330
3043
100
AcDbEntity
  8
WAKU
  6
Continuous
 62
     2
100
AcDbText
 10
1406.0
 20
117.5
 30
0.0
 40
30.0
  1
縮尺
 41
0.84
  7
EXCADSTD
100
AcDbText
  0
TEXT
  5
346B
330
3043
100
AcDbEntity
  8
WAKU
  6
Continuous
 62
     2
100
AcDbText
 10
1408.0
 20
231.0
 30
0.0
 40
30.0
  1
形式
 41
0.84
  7
EXCADSTD
100
AcDbText
  0
TEXT
  5
346C
330
3043
100
AcDbEntity
  8
WAKU
  6
Continuous
 62
     2
100
AcDbText
 10
1057.0
 20
61.0
 30
0.0
 40
30.0
  1
内面
 41
0.84
  7
EXCADSTD
100
AcDbText
  0
TEXT
  5
346D
330
3043
100
AcDbEntity
  8
WAKU
  6
Continuous
 62
     2
100
AcDbText
 10
1055.0
 20
222.0
 30
0.0
 40
30.0
  1
塗装色（艶　　　　　　）
 41
0.84
  7
EXCADSTD
100
AcDbText
  0
LWPOLYLINE
  5
346E
330
3043
100
AcDbEntity
  8
WAKU
  6
Continuous
 62
    11
100
AcDbPolyline
 90
        5
 70
     0
 43
0.0
 10
150.0
 20
50.0
 10
4050.0
 20
50.0
 10
4050.0
 20
2820.0
 10
150.0
 20
2820.0
 10
150.0
 20
50.0
  0
TEXT
  5
346F
330
3043
100
AcDbEntity
  8
WAKU-MOJI
  6
Continuous
100
AcDbText
 10
1709.066666666666
 20
223.0
 30
0.0
 40
40.0
  1
樋田
 41
0.7
  7
M7
 72
     1
 11
1738.0
 21
243.0
 31
0.0
100
AcDbText
 73
     2
  0
LWPOLYLINE
  5
3470
102
{ACAD_REACTORS
330
3471
102
}
330
3043
100
AcDbEntity
  8
WAKU
  6
Continuous
 62
     1
100
AcDbPolyline
 90
        6
 70
     1
 43
0.0
 10
1876.16089539752
 20
150.592
 10
1904.538815828732
 20
150.592
 10
1896.114120700713
 20
136.0
 10
1849.999999999999
 20
136.0
 10
1873.057060350359
 20
175.9359999999999
 10
1890.793260619863
 20
175.9359999999999
  0
HATCH
  5
3471
330
3043
100
AcDbEntity
  8
WAKU-MOJI
  6
Continuous
100
AcDbHatch
 10
0.0
 20
0.0
 30
0.0
210
0.0
220
0.0
230
1.0
  2
SOLID
 70
     1
 71
     1
 91
        1
 92
        1
 93
        6
 72
     1
 10
1876.16089539752
 20
150.592
 11
1904.538815828732
 21
150.592
 72
     1
 10
1904.538815828732
 20
150.592
 11
1896.114120700713
 21
136.0
 72
     1
 10
1896.114120700713
 20
136.0
 11
1849.999999999999
 21
136.0
 72
     1
 10
1849.999999999999
 20
136.0
 11
1873.057060350359
 21
175.9359999999999
 72
     1
 10
1873.057060350359
 20
175.9359999999999
 11
1890.793260619863
 21
175.9359999999999
 72
     1
 10
1890.793260619863
 20
175.9359999999999
 11
1876.16089539752
 21
150.592
 97
        1
330
3470
 75
     0
 76
     1
 98
        1
 10
0.0
 20
0.0
  0
LWPOLYLINE
  5
3472
102
{ACAD_REACTORS
330
3477
102
}
330
3043
100
AcDbEntity
  8
WAKU
  6
Continuous
 62
     5
100
AcDbPolyline
 90
        4
 70
     1
 43
0.0
 10
1885.69691908368
 20
194.368
 10
1912.301219487945
 20
194.368
 10
1907.867169420561
 20
202.048
 10
1881.262869016305
 20
202.048
  0
LWPOLYLINE
  5
3473
102
{ACAD_REACTORS
330
3477
102
}
330
3043
100
AcDbEntity
  8
WAKU
  6
Continuous
 62
     5
100
AcDbPolyline
 90
        4
 70
     1
 43
0.0
 10
1894.106923175614
 20
179.801445620907
 10
1920.711223579879
 20
179.801445620907
 10
1916.277173512495
 20
187.4814456209069
 10
1889.67287310824
 20
187.4814456209069
  0
LWPOLYLINE
  5
3474
102
{ACAD_REACTORS
330
3477
102
}
330
3043
100
AcDbEntity
  8
WAKU
  6
Continuous
 62
     5
100
AcDbPolyline
 90
        4
 70
     1
 43
0.0
 10
1902.581517629864
 20
165.224799936228
 10
1929.185818034129
 20
165.224799936228
 10
1924.751767966745
 20
172.904799936228
 10
1898.14746756249
 20
172.904799936228
  0
LWPOLYLINE
  5
3475
102
{ACAD_REACTORS
330
3477
102
}
330
3043
100
AcDbEntity
  8
WAKU
  6
Continuous
 62
     5
100
AcDbPolyline
 90
        4
 70
     1
 43
0.0
 10
1919.480960321884
 20
135.9541065740469
 10
1946.085260726149
 20
135.9541065740469
 10
1941.651210658765
 20
143.6341065740469
 10
1915.04691025451
 20
143.6341065740469
  0
LWPOLYLINE
  5
3476
102
{ACAD_REACTORS
330
3477
102
}
330
3043
100
AcDbEntity
  8
WAKU
  6
Continuous
 62
     5
100
AcDbPolyline
 90
        4
 70
     1
 43
0.0
 10
1910.954438975874
 20
150.722474757159
 10
1937.558739380139
 20
150.722474757159
 10
1933.124689312755
 20
158.402474757159
 10
1906.5203889085
 20
158.402474757159
  0
HATCH
  5
3477
330
3043
100
AcDbEntity
  8
WAKU-MOJI
  6
Continuous
100
AcDbHatch
 10
0.0
 20
0.0
 30
0.0
210
0.0
220
0.0
230
1.0
  2
SOLID
 70
     1
 71
     1
 91
        5
 92
        1
 93
        4
 72
     1
 10
1919.480960321884
 20
135.9541065740469
 11
1946.085260726149
 21
135.9541065740469
 72
     1
 10
1946.085260726149
 20
135.9541065740469
 11
1941.651210658765
 21
143.6341065740469
 72
     1
 10
1941.651210658765
 20
143.6341065740469
 11
1915.04691025451
 21
143.6341065740469
 72
     1
 10
1915.04691025451
 20
143.6341065740469
 11
1919.480960321884
 21
135.9541065740469
 97
        1
330
3475
 92
        1
 93
        4
 72
     1
 10
1910.954438975874
 20
150.722474757159
 11
1937.558739380139
 21
150.722474757159
 72
     1
 10
1937.558739380139
 20
150.722474757159
 11
1933.124689312755
 21
158.402474757159
 72
     1
 10
1933.124689312755
 20
158.402474757159
 11
1906.5203889085
 21
158.402474757159
 72
     1
 10
1906.5203889085
 20
158.402474757159
 11
1910.954438975874
 21
150.722474757159
 97
        1
330
3476
 92
        1
 93
        4
 72
     1
 10
1902.581517629864
 20
165.224799936228
 11
1929.185818034129
 21
165.224799936228
 72
     1
 10
1929.185818034129
 20
165.224799936228
 11
1924.751767966745
 21
172.904799936228
 72
     1
 10
1924.751767966745
 20
172.904799936228
 11
1898.14746756249
 21
172.904799936228
 72
     1
 10
1898.14746756249
 20
172.904799936228
 11
1902.581517629864
 21
165.224799936228
 97
        1
330
3474
 92
        1
 93
        4
 72
     1
 10
1894.106923175614
 20
179.801445620907
 11
1920.711223579879
 21
179.801445620907
 72
     1
 10
1920.711223579879
 20
179.801445620907
 11
1916.277173512495
 21
187.4814456209069
 72
     1
 10
1916.277173512495
 20
187.4814456209069
 11
1889.67287310824
 21
187.4814456209069
 72
     1
 10
1889.67287310824
 20
187.4814456209069
 11
1894.106923175614
 21
179.801445620907
 97
        1
330
3473
 92
        1
 93
        4
 72
     1
 10
1885.69691908368
 20
194.368
 11
1912.301219487945
 21
194.368
 72
     1
 10
1912.301219487945
 20
194.368
 11
1907.867169420561
 21
202.048
 72
     1
 10
1907.867169420561
 20
202.048
 11
1881.262869016305
 21
202.048
 72
     1
 10
1881.262869016305
 20
202.048
 11
1885.69691908368
 21
194.368
 97
        1
330
3472
 75
     0
 76
     1
 98
        1
 10
0.0
 20
0.0
  0
LWPOLYLINE
  5
3478
102
{ACAD_REACTORS
330
3479
102
}
330
3043
100
AcDbEntity
  8
WAKU
  6
Continuous
 62
     7
100
AcDbPolyline
 90
        7
 70
     1
 43
0.0
 10
1843.0
 20
126.5
 10
1846.499999999999
 20
126.5
 10
1853.5
 20
102.0
 10
1850.0
 20
102.0
 10
1844.75
 20
120.375
 10
1839.5
 20
102.0
 10
1836.0
 20
102.0
  0
HATCH
  5
3479
330
3043
100
AcDbEntity
  8
WAKU-MOJI
  6
Continuous
100
AcDbHatch
 10
0.0
 20
0.0
 30
0.0
210
0.0
220
0.0
230
1.0
  2
SOLID
 70
     1
 71
     1
 91
        2
 92
        1
 93
       69
 72
     1
 10
1869.39
 20
108.4624190070459
 11
1868.95046664168
 21
107.893481361466
 72
     1
 10
1868.95046664168
 20
107.893481361466
 11
1868.195926382809
 21
107.118483114415
 72
     1
 10
1868.195926382809
 20
107.118483114415
 11
1867.36244213045
 21
106.4822917315619
 72
     1
 10
1867.36244213045
 20
106.4822917315619
 11
1866.466236707499
 21
105.997289954516
 72
     1
 10
1866.466236707499
 20
105.997289954516
 11
1865.524753733089
 21
105.672917791188
 72
     1
 10
1865.524753733089
 20
105.672917791188
 11
1864.55631810239
 21
105.5154887767669
 72
     1
 10
1864.55631810239
 20
105.5154887767669
 11
1863.579779313389
 21
105.528067087948
 72
     1
 10
1863.579779313389
 20
105.528067087948
 11
1862.61414458282
 21
105.71040790221
 72
     1
 10
1862.61414458282
 20
105.71040790221
 11
1861.6782088923
 21
106.058962163013
 72
     1
 10
1861.6782088923
 20
106.058962163013
 11
1860.79018916545
 21
106.566945658146
 72
     1
 10
1860.79018916545
 20
106.566945658146
 11
1859.967369696139
 21
107.224471066698
 72
     1
 10
1859.967369696139
 20
107.224471066698
 11
1859.2257657294
 21
108.018740404517
 72
     1
 10
1859.2257657294
 20
108.018740404517
 11
1858.57981174287
 21
108.934294122408
 72
     1
 10
1858.57981174287
 20
108.934294122408
 11
1858.04208049616
 21
109.9533120086809
 72
     1
 10
1858.04208049616
 20
109.9533120086809
 11
1857.6230383163
 21
111.055960039295
 72
     1
 10
1857.6230383163
 20
111.055960039295
 11
1857.33084138268
 21
112.220776424578
 72
     1
 10
1857.33084138268
 20
112.220776424578
 11
1857.17117697625
 21
113.425089338548
 72
     1
 10
1857.17117697625
 20
113.425089338548
 11
1857.14715278305
 21
114.6454582002219
 72
     1
 10
1857.14715278305
 20
114.6454582002219
 11
1857.259236406689
 21
115.858129917856
 72
     1
 10
1857.259236406689
 20
115.858129917856
 11
1857.50524626691
 21
117.039501215859
 72
     1
 10
1857.50524626691
 20
117.039501215859
 11
1857.88039406164
 21
118.1665780457059
 72
     1
 10
1857.88039406164
 20
118.1665780457059
 11
1858.37737796575
 21
119.217423138934
 72
     1
 10
1858.37737796575
 20
119.217423138934
 11
1858.98652475288
 21
120.171582991124
 72
     1
 10
1858.98652475288
 20
120.171582991124
 11
1859.695978073699
 21
121.010485966092
 72
     1
 10
1859.695978073699
 20
121.010485966092
 11
1860.49192922631
 21
121.717803771669
 72
     1
 10
1860.49192922631
 20
121.717803771669
 11
1861.35888592692
 21
122.2797692713309
 72
     1
 10
1861.35888592692
 20
122.2797692713309
 11
1862.27997384949
 21
122.6854444458539
 72
     1
 10
1862.27997384949
 20
122.6854444458539
 11
1863.23726506533
 21
122.9269332894139
 72
     1
 10
1863.23726506533
 20
122.9269332894139
 11
1864.21212698983
 21
122.999535496362
 72
     1
 10
1864.21212698983
 20
122.999535496362
 11
1865.18558504451
 21
122.9018379473209
 72
     1
 10
1865.18558504451
 20
122.9018379473209
 11
1866.13869197564
 21
122.635742213956
 72
     1
 10
1866.13869197564
 20
122.635742213956
 11
1867.05289664094
 21
122.2064275470369
 72
     1
 10
1867.05289664094
 20
122.2064275470369
 11
1867.9104050865
 21
121.622250068216
 72
     1
 10
1867.9104050865
 20
121.622250068216
 11
1868.694526885819
 21
120.894580127628
 72
     1
 10
1868.694526885819
 20
120.894580127628
 11
1869.39
 21
120.0375809929539
 72
     1
 10
1869.39
 20
120.0375809929539
 11
1869.39
 21
124.858811196359
 72
     1
 10
1869.39
 20
124.858811196359
 11
1868.15817603983
 21
125.567524273263
 72
     1
 10
1868.15817603983
 20
125.567524273263
 11
1866.85759997358
 21
126.082591372041
 72
     1
 10
1866.85759997358
 20
126.082591372041
 11
1865.51052501831
 21
126.3951995518289
 72
     1
 10
1865.51052501831
 20
126.3951995518289
 11
1864.14
 21
126.5
 72
     1
 10
1864.14
 20
126.5
 11
1862.769474981689
 21
126.3951995518289
 72
     1
 10
1862.769474981689
 20
126.3951995518289
 11
1861.422400026419
 21
126.082591372041
 72
     1
 10
1861.422400026419
 20
126.082591372041
 11
1860.121823960169
 21
125.567524273263
 72
     1
 10
1860.121823960169
 20
125.567524273263
 11
1858.89
 21
124.858811196359
 72
     1
 10
1858.89
 20
124.858811196359
 11
1857.74800499541
 21
123.968578418568
 72
     1
 10
1857.74800499541
 20
123.968578418568
 11
1856.71537879754
 21
122.912058069535
 72
     1
 10
1856.71537879754
 20
122.912058069535
 11
1855.80978992694
 21
121.7073275053569
 72
     1
 10
1855.80978992694
 20
121.7073275053569
 11
1855.04673326026
 21
120.375
 72
     1
 10
1855.04673326026
 20
120.375
 11
1854.439264908629
 21
118.9378720464719
 72
     1
 10
1854.439264908629
 20
118.9378720464719
 11
1853.99777882397
 21
117.4205333025059
 72
     1
 10
1853.99777882397
 20
117.4205333025059
 11
1853.72982895558
 21
115.8489458546959
 72
     1
 10
1853.72982895558
 20
115.8489458546959
 11
1853.64
 21
114.25
 72
     1
 10
1853.64
 20
114.25
 11
1853.72982895558
 21
112.6510541453049
 72
     1
 10
1853.72982895558
 20
112.6510541453049
 11
1853.99777882397
 21
111.0794666974939
 72
     1
 10
1853.99777882397
 20
111.0794666974939
 11
1854.439264908629
 21
109.5621279535279
 72
     1
 10
1854.439264908629
 20
109.5621279535279
 11
1855.04673326026
 21
108.125
 72
     1
 10
1855.04673326026
 20
108.125
 11
1855.80978992694
 21
106.7926724946429
 72
     1
 10
1855.80978992694
 20
106.7926724946429
 11
1856.71537879754
 21
105.587941930465
 72
     1
 10
1856.71537879754
 20
105.587941930465
 11
1857.74800499541
 21
104.5314215814319
 72
     1
 10
1857.74800499541
 20
104.5314215814319
 11
1858.89
 21
103.6411888036409
 72
     1
 10
1858.89
 20
103.6411888036409
 11
1860.121823960169
 21
102.9324757267369
 72
     1
 10
1860.121823960169
 20
102.9324757267369
 11
1861.422400026419
 21
102.4174086279589
 72
     1
 10
1861.422400026419
 20
102.4174086279589
 11
1862.769474981689
 21
102.104800448171
 72
     1
 10
1862.769474981689
 20
102.104800448171
 11
1864.14
 21
102.0
 72
     1
 10
1864.14
 20
102.0
 11
1865.51052501831
 21
102.104800448171
 72
     1
 10
1865.51052501831
 20
102.104800448171
 11
1866.85759997358
 21
102.4174086279589
 72
     1
 10
1866.85759997358
 20
102.4174086279589
 11
1868.15817603983
 21
102.9324757267369
 72
     1
 10
1868.15817603983
 20
102.9324757267369
 11
1869.39
 21
103.6411888036409
 72
     1
 10
1869.39
 20
103.6411888036409
 11
1869.39
 21
108.4624190070459
 97
        1
330
3414
 92
        1
 93
        7
 72
     1
 10
1843.0
 20
126.5
 11
1846.499999999999
 21
126.5
 72
     1
 10
1846.499999999999
 20
126.5
 11
1853.5
 21
102.0
 72
     1
 10
1853.5
 20
102.0
 11
1850.0
 21
102.0
 72
     1
 10
1850.0
 20
102.0
 11
1844.75
 21
120.375
 72
     1
 10
1844.75
 20
120.375
 11
1839.5
 21
102.0
 72
     1
 10
1839.5
 20
102.0
 11
1836.0
 21
102.0
 72
     1
 10
1836.0
 20
102.0
 11
1843.0
 21
126.5
 97
        1
330
3478
 75
     0
 76
     1
 98
        1
 10
0.0
 20
0.0
  0
HATCH
  5
347A
330
3043
100
AcDbEntity
  8
WAKU-MOJI
  6
Continuous
100
AcDbHatch
 10
0.0
 20
0.0
 30
0.0
210
0.0
220
0.0
230
1.0
  2
SOLID
 70
     1
 71
     1
 91
        6
 92
        1
 93
       12
 72
     1
 10
1888.5
 20
102.0
 11
1874.5
 21
102.0
 72
     1
 10
1874.5
 20
102.0
 11
1874.5
 21
126.5
 72
     1
 10
1874.5
 20
126.5
 11
1888.5
 21
126.5
 72
     1
 10
1888.5
 20
126.5
 11
1888.5
 21
123.0
 72
     1
 10
1888.5
 20
123.0
 11
1878.0
 21
123.0
 72
     1
 10
1878.0
 20
123.0
 11
1878.0
 21
116.0
 72
     1
 10
1878.0
 20
116.0
 11
1888.5
 21
116.0
 72
     1
 10
1888.5
 20
116.0
 11
1888.5
 21
112.5
 72
     1
 10
1888.5
 20
112.5
 11
1878.0
 21
112.5
 72
     1
 10
1878.0
 20
112.5
 11
1878.0
 21
105.4999999999999
 72
     1
 10
1878.0
 20
105.4999999999999
 11
1888.5
 21
105.4999999999999
 72
     1
 10
1888.5
 20
105.4999999999999
 11
1888.5
 21
102.0
 97
        1
330
341A
 92
        1
 93
        6
 72
     1
 10
1902.5
 20
126.5
 11
1902.5
 21
105.4999999999999
 72
     1
 10
1902.5
 20
105.4999999999999
 11
1909.499999999999
 21
105.4999999999999
 72
     1
 10
1909.499999999999
 20
105.4999999999999
 11
1909.499999999999
 21
102.0
 72
     1
 10
1909.499999999999
 20
102.0
 11
1899.0
 21
102.0
 72
     1
 10
1899.0
 20
102.0
 11
1899.0
 21
126.5
 72
     1
 10
1899.0
 20
126.5
 11
1902.5
 21
126.5
 97
        1
330
3419
 92
        1
 93
        4
 72
     1
 10
1913.0
 20
126.5
 11
1913.0
 21
102.0
 72
     1
 10
1913.0
 20
102.0
 11
1916.5
 21
102.0
 72
     1
 10
1916.5
 20
102.0
 11
1916.5
 21
126.5
 72
     1
 10
1916.5
 20
126.5
 11
1913.0
 21
126.5
 97
        1
330
3418
 92
        1
 93
       10
 72
     1
 10
1937.5
 20
102.0
 11
1941.0
 21
102.0
 72
     1
 10
1941.0
 20
102.0
 11
1941.0
 21
119.5
 72
     1
 10
1941.0
 20
119.5
 11
1951.5
 21
102.0
 72
     1
 10
1951.5
 20
102.0
 11
1955.0
 21
102.0
 72
     1
 10
1955.0
 20
102.0
 11
1955.0
 21
126.5
 72
     1
 10
1955.0
 20
126.5
 11
1951.5
 21
126.5
 72
     1
 10
1951.5
 20
126.5
 11
1951.5
 21
109.0
 72
     1
 10
1951.5
 20
109.0
 11
1941.0
 21
126.5
 72
     1
 10
1941.0
 20
126.5
 11
1937.5
 21
126.5
 72
     1
 10
1937.5
 20
126.5
 11
1937.5
 21
102.0
 97
        1
330
3417
 92
        1
 93
       48
 72
     1
 10
1927.0
 20
126.5
 11
1925.85789581807
 21
126.3951995518289
 72
     1
 10
1925.85789581807
 20
126.3951995518289
 11
1924.73533335535
 21
126.082591372041
 72
     1
 10
1924.73533335535
 20
126.082591372041
 11
1923.65151996681
 21
125.567524273263
 72
     1
 10
1923.65151996681
 20
125.567524273263
 11
1922.625
 21
124.858811196359
 72
     1
 10
1922.625
 20
124.858811196359
 11
1921.67333749617
 21
123.968578418568
 72
     1
 10
1921.67333749617
 20
123.968578418568
 11
1920.81281566462
 21
122.912058069535
 72
     1
 10
1920.81281566462
 20
122.912058069535
 11
1920.05815827245
 21
121.7073275053569
 72
     1
 10
1920.05815827245
 20
121.7073275053569
 11
1919.42227771689
 21
120.375
 72
     1
 10
1919.42227771689
 20
120.375
 11
1918.91605409053
 21
118.9378720464719
 72
     1
 10
1918.91605409053
 20
118.9378720464719
 11
1918.54814901997
 21
117.4205333025059
 72
     1
 10
1918.54814901997
 20
117.4205333025059
 11
1918.324857462979
 21
115.8489458546959
 72
     1
 10
1918.324857462979
 20
115.8489458546959
 11
1918.25
 21
114.25
 72
     1
 10
1918.25
 20
114.25
 11
1918.324857462979
 21
112.6510541453039
 72
     1
 10
1918.324857462979
 20
112.6510541453039
 11
1918.54814901997
 21
111.0794666974939
 72
     1
 10
1918.54814901997
 20
111.0794666974939
 11
1918.91605409053
 21
109.5621279535279
 72
     1
 10
1918.91605409053
 20
109.5621279535279
 11
1919.42227771689
 21
108.125
 72
     1
 10
1919.42227771689
 20
108.125
 11
1920.05815827245
 21
106.7926724946429
 72
     1
 10
1920.05815827245
 20
106.7926724946429
 11
1920.81281566462
 21
105.587941930465
 72
     1
 10
1920.81281566462
 20
105.587941930465
 11
1921.67333749617
 21
104.5314215814319
 72
     1
 10
1921.67333749617
 20
104.5314215814319
 11
1922.625
 21
103.6411888036409
 72
     1
 10
1922.625
 20
103.6411888036409
 11
1923.65151996681
 21
102.9324757267369
 72
     1
 10
1923.65151996681
 20
102.9324757267369
 11
1924.73533335535
 21
102.4174086279589
 72
     1
 10
1924.73533335535
 20
102.4174086279589
 11
1925.85789581807
 21
102.104800448171
 72
     1
 10
1925.85789581807
 20
102.104800448171
 11
1927.0
 21
102.0
 72
     1
 10
1927.0
 20
102.0
 11
1928.142104181929
 21
102.104800448171
 72
     1
 10
1928.142104181929
 20
102.104800448171
 11
1929.264666644649
 21
102.4174086279589
 72
     1
 10
1929.264666644649
 20
102.4174086279589
 11
1930.34848003319
 21
102.9324757267369
 72
     1
 10
1930.34848003319
 20
102.9324757267369
 11
1931.375
 21
103.6411888036409
 72
     1
 10
1931.375
 20
103.6411888036409
 11
1932.326662503829
 21
104.5314215814319
 72
     1
 10
1932.326662503829
 20
104.5314215814319
 11
1933.18718433538
 21
105.587941930465
 72
     1
 10
1933.18718433538
 20
105.587941930465
 11
1933.94184172755
 21
106.7926724946429
 72
     1
 10
1933.94184172755
 20
106.7926724946429
 11
1934.577722283109
 21
108.125
 72
     1
 10
1934.577722283109
 20
108.125
 11
1935.08394590947
 21
109.5621279535279
 72
     1
 10
1935.08394590947
 20
109.5621279535279
 11
1935.45185098003
 21
111.0794666974939
 72
     1
 10
1935.45185098003
 20
111.0794666974939
 11
1935.67514253702
 21
112.6510541453039
 72
     1
 10
1935.67514253702
 20
112.6510541453039
 11
1935.75
 21
114.25
 72
     1
 10
1935.75
 20
114.25
 11
1935.67514253702
 21
115.8489458546959
 72
     1
 10
1935.67514253702
 20
115.8489458546959
 11
1935.45185098003
 21
117.4205333025059
 72
     1
 10
1935.45185098003
 20
117.4205333025059
 11
1935.08394590947
 21
118.9378720464719
 72
     1
 10
1935.08394590947
 20
118.9378720464719
 11
1934.577722283109
 21
120.375
 72
     1
 10
1934.577722283109
 20
120.375
 11
1933.94184172755
 21
121.7073275053569
 72
     1
 10
1933.94184172755
 20
121.7073275053569
 11
1933.18718433538
 21
122.912058069535
 72
     1
 10
1933.18718433538
 20
122.912058069535
 11
1932.326662503829
 21
123.968578418568
 72
     1
 10
1932.326662503829
 20
123.968578418568
 11
1931.375
 21
124.858811196359
 72
     1
 10
1931.375
 20
124.858811196359
 11
1930.34848003319
 21
125.567524273263
 72
     1
 10
1930.34848003319
 20
125.567524273263
 11
1929.264666644649
 21
126.082591372041
 72
     1
 10
1929.264666644649
 20
126.082591372041
 11
1928.142104181929
 21
126.3951995518289
 72
     1
 10
1928.142104181929
 20
126.3951995518289
 11
1927.0
 21
126.5
 97
        1
330
3416
 92
       16
 93
       45
 72
     1
 10
1932.25
 20
114.25
 11
1932.19890736089
 21
115.4677646334009
 72
     1
 10
1932.19890736089
 20
115.4677646334009
 11
1932.04662390368
 21
116.661826863399
 72
     1
 10
1932.04662390368
 20
116.661826863399
 11
1931.79611365262
 21
117.808945626913
 72
     1
 10
1931.79611365262
 20
117.808945626913
 11
1931.45225250482
 21
118.886793562041
 72
     1
 10
1931.45225250482
 20
118.886793562041
 11
1931.02173332638
 21
119.8743915847569
 72
     1
 10
1931.02173332638
 20
119.8743915847569
 11
1930.512935683379
 21
120.7525172229269
 72
     1
 10
1930.512935683379
 20
120.7525172229269
 11
1929.93576274322
 21
121.504078759857
 72
     1
 10
1929.93576274322
 20
121.504078759857
 11
1929.30144852064
 21
122.114447905118
 72
     1
 10
1929.30144852064
 20
122.114447905118
 11
1928.62233922047
 21
122.571744517583
 72
     1
 10
1928.62233922047
 20
122.571744517583
 11
1927.911652932749
 21
122.8670678388569
 72
     1
 10
1927.911652932749
 20
122.8670678388569
 11
1927.18322235769
 21
122.9946697364169
 72
     1
 10
1927.18322235769
 20
122.9946697364169
 11
1926.45122556785
 21
122.9520665844719
 72
     1
 10
1926.45122556785
 20
122.9520665844719
 11
1925.7299100481
 21
122.740087604915
 72
     1
 10
1925.7299100481
 20
122.740087604915
 11
1925.03331538457
 21
122.3628587274589
 72
     1
 10
1925.03331538457
 20
122.3628587274589
 11
1924.375
 21
121.8277222831139
 72
     1
 10
1924.375
 20
121.8277222831139
 11
1923.767777254539
 21
121.145094094059
 72
     1
 10
1923.767777254539
 20
121.145094094059
 11
1923.223466048219
 21
120.328260741516
 72
     1
 10
1923.223466048219
 20
120.328260741516
 11
1922.752660779529
 21
119.393120957559
 72
     1
 10
1922.752660779529
 20
119.393120957559
 11
1922.36452513749
 21
118.357876174377
 72
     1
 10
1922.36452513749
 20
118.357876174377
 11
1922.066613740869
 21
117.2426762540999
 72
     1
 10
1922.066613740869
 20
117.2426762540999
 11
1921.864725096149
 21
116.0692272946549
 72
     1
 10
1921.864725096149
 20
116.0692272946549
 11
1921.762788736139
 21
114.8603691452609
 72
     1
 10
1921.762788736139
 20
114.8603691452609
 11
1921.762788736139
 21
113.6396308547389
 72
     1
 10
1921.762788736139
 20
113.6396308547389
 11
1921.864725096149
 21
112.430772705345
 72
     1
 10
1921.864725096149
 20
112.430772705345
 11
1922.066613740869
 21
111.2573237458999
 72
     1
 10
1922.066613740869
 20
111.2573237458999
 11
1922.36452513749
 21
110.142123825624
 72
     1
 10
1922.36452513749
 20
110.142123825624
 11
1922.752660779529
 21
109.106879042441
 72
     1
 10
1922.752660779529
 20
109.106879042441
 11
1923.223466048219
 21
108.171739258484
 72
     1
 10
1923.223466048219
 20
108.171739258484
 11
1923.767777254539
 21
107.3549059059409
 72
     1
 10
1923.767777254539
 20
107.3549059059409
 11
1924.375
 21
106.6722777168859
 72
     1
 10
1924.375
 20
106.6722777168859
 11
1925.03331538457
 21
106.137141272541
 72
     1
 10
1925.03331538457
 20
106.137141272541
 11
1925.7299100481
 21
105.7599123950849
 72
     1
 10
1925.7299100481
 20
105.7599123950849
 11
1926.45122556785
 21
105.547933415528
 72
     1
 10
1926.45122556785
 20
105.547933415528
 11
1927.18322235769
 21
105.5053302635829
 72
     1
 10
1927.18322235769
 20
105.5053302635829
 11
1927.911652932749
 21
105.632932161143
 72
     1
 10
1927.911652932749
 20
105.632932161143
 11
1928.62233922047
 21
105.9282554824169
 72
     1
 10
1928.62233922047
 20
105.9282554824169
 11
1929.30144852064
 21
106.385552094882
 72
     1
 10
1929.30144852064
 20
106.385552094882
 11
1929.93576274322
 21
106.995921240143
 72
     1
 10
1929.93576274322
 20
106.995921240143
 11
1930.512935683379
 21
107.747482777073
 72
     1
 10
1930.512935683379
 20
107.747482777073
 11
1931.02173332638
 21
108.625608415243
 72
     1
 10
1931.02173332638
 20
108.625608415243
 11
1931.45225250482
 21
109.6132064379599
 72
     1
 10
1931.45225250482
 20
109.6132064379599
 11
1931.79611365262
 21
110.691054373087
 72
     1
 10
1931.79611365262
 20
110.691054373087
 11
1932.04662390368
 21
111.838173136601
 72
     1
 10
1932.04662390368
 20
111.838173136601
 11
1932.19890736089
 21
113.032235366599
 72
     1
 10
1932.19890736089
 20
113.032235366599
 11
1932.25
 21
114.25
 97
        1
330
3415
 75
     0
 76
     1
 98
        1
 10
0.0
 20
0.0
  0
TEXT
  5
347B
330
3043
100
AcDbEntity
  8
WAKU-MOJI
  6
Continuous
100
AcDbText
 10
2859.333333333333
 20
191.0
 30
0.0
 40
40.0
  1
島根小学校改築電気設備工事
 41
0.7
  7
M7
 72
     1
 11
3074.0
 21
211.0
 31
0.0
100
AcDbText
 73
     2
  0
TEXT
  5
347C
330
3043
100
AcDbEntity
  8
WAKU-MOJI
  6
Continuous
100
AcDbText
 10
2688.466666666666
 20
79.0
 30
0.0
 40
40.0
  1
2LW-1・2T-1
 41
0.7
  7
M7
 72
     1
 11
2849.0
 21
99.0
 31
0.0
100
AcDbText
 73
     2
  0
TEXT
  5
347D
330
3043
100
AcDbEntity
  8
WAKU-MOJI
  6
Continuous
100
AcDbText
 10
3647.0
 20
195.0
 30
0.0
 40
40.0
  1
8160628
 41
0.7
  7
M7
 11
3647.0
 21
215.0
 31
0.0
100
AcDbText
 73
     2
  0
TEXT
  5
347E
330
3043
100
AcDbEntity
  8
WAKU-MOJI
  6
Continuous
100
AcDbText
 10
3648.0
 20
83.0
 30
0.0
 40
40.0
  1
2409618
 41
0.7
  7
M7
 11
3648.0
 21
103.0
 31
0.0
100
AcDbText
 73
     2
  0
TEXT
  5
347F
330
3043
100
AcDbEntity
  8
WAKU-MOJI
  6
Continuous
100
AcDbText
 10
1708.133333333333
 20
113.0
 30
0.0
 40
40.0
  1
青柳
 41
0.7
  7
M7
 72
     1
 11
1738.0
 21
133.0
 31
0.0
100
AcDbText
 73
     2
  0
TEXT
  5
3480
330
3043
100
AcDbEntity
  8
WAKU-MOJI
  6
Continuous
100
AcDbText
 10
4011.0
 20
55.0
 30
0.0
 40
40.0
  1
5
 41
0.7
  7
M7
 72
     1
 11
4025.0
 21
75.0
 31
0.0
100
AcDbText
 73
     2
  0
TEXT
  5
3481
330
3043
100
AcDbEntity
  8
WAKU-MOJI
  6
Continuous
100
AcDbText
 10
1629.133333333333
 20
169.5
 30
0.0
 40
35.0
  1
01
 41
0.7
  7
M7
 72
     1
 11
1652.0
 21
187.0
 31
0.0
100
AcDbText
 73
     2
  0
TEXT
  5
3482
330
3043
100
AcDbEntity
  8
WAKU-MOJI
  6
Continuous
100
AcDbText
 10
1698.566666666666
 20
169.5
 30
0.0
 40
35.0
  1
8
 41
0.7
  7
M7
 72
     1
 11
1710.0
 21
187.0
 31
0.0
100
AcDbText
 73
     2
  0
TEXT
  5
3483
330
3043
100
AcDbEntity
  8
WAKU-MOJI
  6
Continuous
100
AcDbText
 10
1741.866666666666
 20
169.5
 30
0.0
 40
35.0
  1
28
 41
0.7
  7
M7
 72
     1
 11
1768.0
 21
187.0
 31
0.0
100
AcDbText
 73
     2
  0
ENDBLK
  5
3045
330
3043
100
AcDbEntity
  8
0
100
AcDbBlockEnd
  0
BLOCK
  5
349B
330
3498
100
AcDbEntity
  8
0
100
AcDbBlockBegin
  2
TB-EU
 70
     0
 10
0.0
 20
0.0
 30
0.0
  3
TB-EU
  1

  0
CIRCLE
  5
3499
330
3498
100
AcDbEntity
  8
CONTROL-CIRCUIT
  6
Continuous
100
AcDbCircle
 10
0.0
 20
0.0
 30
0.0
 40
10.0
  0
LINE
  5
349A
330
3498
100
AcDbEntity
  8
CONTROL-CIRCUIT
  6
Continuous
100
AcDbLine
 10
0.0
 20
10.0
 30
0.0
 11
0.0
 21
25.0
 31
0.0
  0
ENDBLK
  5
349C
330
3498
100
AcDbEntity
  8
0
100
AcDbBlockEnd
  0
BLOCK
  5
34A0
330
349D
100
AcDbEntity
  8
0
100
AcDbBlockBegin
  2
TB-ED
 70
     0
 10
0.0
 20
0.0
 30
0.0
  3
TB-ED
  1

  0
CIRCLE
  5
349E
330
349D
100
AcDbEntity
  8
CONTROL-CIRCUIT
  6
Continuous
100
AcDbCircle
 10
0.0
 20
0.0
 30
0.0
 40
10.0
  0
LINE
  5
349F
330
349D
100
AcDbEntity
  8
CONTROL-CIRCUIT
  6
Continuous
100
AcDbLine
 10
0.0
 20
-10.0
 30
0.0
 11
0.0
 21
-25.0
 31
0.0
  0
ENDBLK
  5
34A1
330
349D
100
AcDbEntity
  8
0
100
AcDbBlockEnd
  0
BLOCK
  5
34A5
330
34A2
100
AcDbEntity
  8
0
100
AcDbBlockBegin
  2
AM03
 70
     0
 10
0.0
 20
0.0
 30
0.0
  3
AM03
  1

  0
CIRCLE
  5
34A3
330
34A2
100
AcDbEntity
  8
JIS
  6
Continuous
 62
     7
100
AcDbCircle
 10
-0.0000000000002274
 20
-0.0000000000011369
 30
0.0
 40
10.0
  0
LINE
  5
34A4
330
34A2
100
AcDbEntity
  8
JIS
  6
ByBlock
 62
     7
100
AcDbLine
 10
-0.0000000000002274
 20
-10.00000000000022
 30
0.0
 11
-0.0000000000002274
 21
-25.0
 31
0.0
  0
ENDBLK
  5
34A6
330
34A2
100
AcDbEntity
  8
0
100
AcDbBlockEnd
  0
BLOCK
  5
34AA
330
34A7
100
AcDbEntity
  8
0
100
AcDbBlockBegin
  2
AL03
 70
     0
 10
0.0
 20
0.0
 30
0.0
  3
AL03
  1

  0
CIRCLE
  5
34A8
330
34A7
100
AcDbEntity
  8
JIS
  6
Continuous
 62
     7
100
AcDbCircle
 10
0.0
 20
0.0
 30
0.0
 40
10.0
  0
LINE
  5
34A9
330
34A7
100
AcDbEntity
  8
JIS
  6
ByBlock
 62
     7
100
AcDbLine
 10
0.0
 20
9.99999999999909
 30
0.0
 11
0.0
 21
24.99999999999886
 31
0.0
  0
ENDBLK
  5
34AB
330
34A7
100
AcDbEntity
  8
0
100
AcDbBlockEnd
  0
BLOCK
  5
34B8
330
34AC
100
AcDbEntity
  8
0
100
AcDbBlockBegin
  2
AY03
 70
     2
 10
0.0
 20
0.0
 30
0.0
  3
AY03
  1

  0
ATTDEF
  5
34AD
330
34AC
100
AcDbEntity
  8
ZOKUSEI
  6
ByBlock
100
AcDbText
 10
55.0
 20
105.0000089630634
 30
0.0
 40
25.0
  1
SA
 41
0.7
  7
M7
100
AcDbAttributeDefinition
  3
記号
  2
KIGO
 70
     8
  0
ATTDEF
  5
34AE
330
34AC
100
AcDbEntity
  8
ZOKUSEI
  6
ByBlock
100
AcDbText
 10
145.0
 20
105.0000089630634
 30
0.0
 40
25.0
  1
1
 41
0.7
  7
M7
100
AcDbAttributeDefinition
  3
番号を入力してください
  2
BANGO
 70
     0
  0
ATTDEF
  5
34AF
330
34AC
100
AcDbEntity
  8
ZOKUSEI
100
AcDbText
 10
55.0
 20
74.99999800000023
 30
0.0
 40
25.0
  1
20kA(8/20)
 41
0.7
  7
M7
100
AcDbAttributeDefinition
  3
放電電流を入力してください
  2
TEIKAKU1
 70
     0
  0
ATTDEF
  5
34B0
330
34AC
100
AcDbEntity
  8
ZOKUSEI
100
AcDbText
 10
55.0
 20
44.99999800000023
 30
0.0
 40
25.0
  1
≧1.5kV
 41
0.7
  7
M7
100
AcDbAttributeDefinition
  3
制限電圧を入力してください
  2
TEIKAKU2
 70
     0
  0
ATTDEF
  5
34B1
330
34AC
100
AcDbEntity
  8
ZOKUSEI
100
AcDbText
 10
54.99999899999966
 20
15.00000199999976
 30
0.0
 40
25.0
  1
(DEHNgapC/T)
 41
0.7
  7
M7
100
AcDbAttributeDefinition
  3
形式を入力してください:
  2
KATA
 70
     0
  0
LINE
  5
34B2
330
34AC
100
AcDbEntity
  8
JIS
  6
ByBlock
 62
     3
100
AcDbLine
 10
0.0
 20
105.0
 30
0.0
 11
0.0
 21
149.9999980000002
 31
0.0
  0
CIRCLE
  5
34B3
330
34AC
100
AcDbEntity
  8
JIS
  6
Continuous
 62
     3
100
AcDbCircle
 10
0.0
 20
75.0
 30
0.0
 40
45.99999799999999
  0
HATCH
  5
34B4
330
34AC
100
AcDbEntity
  8
JIS
  6
Continuous
 62
     3
100
AcDbHatch
 10
0.0
 20
0.0
 30
0.0
210
0.0
220
0.0
230
1.0
  2
ANSI31
 70
     0
 71
     0
 91
        1
 92
        7
 72
     0
 73
     1
 93
        3
 10
10.0
 20
45.0
 10
-10.0
 20
45.0
 10
0.0
 20
70.0
 97
        0
 75
     0
 76
     1
 52
0.0
 41
1.0
 77
     0
 78
     1
 53
315.0
 43
-2200.0
 44
2100.0
 45
-0.0883883476483184
 46
-0.0883883476483185
 79
     0
 47
0.2261904761904762
 98
        1
 10
0.0
 20
55.0
  0
LINE
  5
34B5
330
34AC
100
AcDbEntity
  8
JIS
  6
ByBlock
 62
     3
100
AcDbLine
 10
0.0
 20
45.0
 30
0.0
 11
0.0
 21
0.0
 31
0.0
  0
HATCH
  5
34B6
330
34AC
100
AcDbEntity
  8
JIS
  6
Continuous
 62
     3
100
AcDbHatch
 10
0.0
 20
0.0
 30
0.0
210
0.0
220
0.0
230
1.0
  2
ANSI31
 70
     0
 71
     0
 91
        1
 92
        7
 72
     1
 73
     1
 93
        2
 10
30.0
 20
65.0
 42
1.0
 10
20.0
 20
65.0
 42
1.0
 97
        0
 75
     0
 76
     1
 52
0.0
 41
1.0
 77
     0
 78
     1
 53
45.0
 43
-2200.0
 44
-1950.0
 45
-0.0883883476483184
 46
0.0883883476483185
 79
     0
 47
0.2261904761904762
 98
        1
 10
25.0
 20
65.0
  0
HATCH
  5
34B7
330
34AC
100
AcDbEntity
  8
JIS
  6
Continuous
 62
     3
100
AcDbHatch
 10
0.0
 20
0.0
 30
0.0
210
0.0
220
0.0
230
1.0
  2
ANSI31
 70
     0
 71
     0
 91
        1
 92
        7
 72
     0
 73
     1
 93
        3
 10
10.0
 20
105.0
 10
-10.0
 20
105.0
 10
0.0
 20
80.0
 97
        0
 75
     0
 76
     1
 52
0.0
 41
1.0
 77
     0
 78
     1
 53
45.0
 43
-2200.0
 44
-1950.0
 45
-0.0883883476483184
 46
0.0883883476483185
 79
     0
 47
0.2261904761904762
 98
        1
 10
0.0
 20
95.0
  0
ENDBLK
  5
34B9
330
34AC
100
AcDbEntity
  8
0
100
AcDbBlockEnd
  0
BLOCK
  5
34C5
330
34BA
100
AcDbEntity
  8
0
100
AcDbBlockBegin
  2
AY02
 70
     2
 10
0.0
 20
0.0
 30
0.0
  3
AY02
  1

  0
ATTDEF
  5
34BB
330
34BA
100
AcDbEntity
  8
ZOKUSEI
  6
ByBlock
100
AcDbText
 10
40.0
 20
105.0000109630632
 30
0.0
 40
25.0
  1
SA
 41
0.7
  7
M7
100
AcDbAttributeDefinition
  3
記号
  2
KIGO
 70
     8
  0
ATTDEF
  5
34BC
330
34BA
100
AcDbEntity
  8
ZOKUSEI
  6
ByBlock
100
AcDbText
 10
130.0
 20
105.0000109630632
 30
0.0
 40
25.0
  1
1
 41
0.7
  7
M7
100
AcDbAttributeDefinition
  3
番号を入力してください
  2
BANGO
 70
     0
  0
ATTDEF
  5
34BD
330
34BA
100
AcDbEntity
  8
ZOKUSEI
100
AcDbText
 10
40.0
 20
75.0
 30
0.0
 40
25.0
  1
15kA(8/20)
 41
0.7
  7
M7
100
AcDbAttributeDefinition
  3
放電電流を入力してください
  2
TEIKAKU1
 70
     0
  0
ATTDEF
  5
34BE
330
34BA
100
AcDbEntity
  8
ZOKUSEI
100
AcDbText
 10
40.0
 20
45.0
 30
0.0
 40
25.0
  1
≧750V
 41
0.7
  7
M7
100
AcDbAttributeDefinition
  3
制限電圧を入力してください
  2
TEIKAKU2
 70
     0
  0
ATTDEF
  5
34BF
330
34BA
100
AcDbEntity
  8
ZOKUSEI
100
AcDbText
 10
39.99999899999966
 20
15.00000399999953
 30
0.0
 40
25.0
  1
(DEHNguardT150FM)
 41
0.7
  7
M7
100
AcDbAttributeDefinition
  3
形式を入力してください:
  2
KATA
 70
     0
  0
LWPOLYLINE
  5
34C0
330
34BA
100
AcDbEntity
  8
JIS
  6
Continuous
 62
     3
100
AcDbPolyline
 90
        4
 70
     1
 43
0.0
 10
-19.99999969999999
 20
25.00000050000017
 10
20.00000030000001
 20
25.00000050000017
 10
20.00000030000001
 20
124.9999994999998
 10
-19.99999969999999
 20
124.9999994999998
  0
LINE
  5
34C1
330
34BA
100
AcDbEntity
  8
JIS
  6
Continuous
 62
     3
100
AcDbLine
 10
-29.99999969999999
 20
124.9999994999998
 30
0.0
 11
30.00000030000001
 21
24.99999949999983
 31
0.0
  0
LINE
  5
34C2
330
34BA
100
AcDbEntity
  8
JIS
  6
Continuous
 62
     3
100
AcDbLine
 10
0.0
 20
25.0
 30
0.0
 11
0.0
 21
0.0
 31
0.0
  0
LINE
  5
34C3
330
34BA
100
AcDbEntity
  8
JIS
  6
Continuous
 62
     3
100
AcDbLine
 10
30.00000030000001
 20
24.99999949999983
 30
0.0
 11
30.00000030000001
 21
14.99999949999983
 31
0.0
  0
LINE
  5
34C4
330
34BA
100
AcDbEntity
  8
JIS
  6
Continuous
 62
     3
100
AcDbLine
 10
0.0
 20
125.0
 30
0.0
 11
0.0
 21
150.0
 31
0.0
  0
ENDBLK
  5
34C6
330
34BA
100
AcDbEntity
  8
0
100
AcDbBlockEnd
  0
ENDSEC
  0
SECTION
  2
ENTITIES
  0
LWPOLYLINE
  5
2099
330
18
100
AcDbEntity
  8
1
  6
Continuous
100
AcDbPolyline
 90
        4
 70
     1
 43
0.0
 10
399.9999983368143
 20
1649.999998797215
 10
1549.999998336814
 20
1649.999998797215
 10
1549.999998336814
 20
1549.999998797215
 10
399.9999983368143
 20
1549.999998797215
  0
TEXT
  5
209B
330
18
100
AcDbEntity
  8
1
  6
Continuous
100
AcDbText
 10
560.3333316701475
 20
1587.499998797215
 30
0.0
 40
25.0
  1
機器定格
 41
0.7
  7
M7
 72
     1
 11
599.9999983368143
 21
1599.999998797215
 31
0.0
100
AcDbText
 73
     2
  0
LINE
  5
209C
330
18
100
AcDbEntity
  8
1
  6
Continuous
100
AcDbLine
 10
1449.999998336814
 20
1549.999998797215
 30
0.0
 11
1449.999998336814
 21
1649.999998797215
 31
0.0
  0
LINE
  5
209D
330
18
100
AcDbEntity
  8
1
  6
Continuous
100
AcDbLine
 10
1349.999998336814
 20
1649.999998797215
 30
0.0
 11
1349.999998336814
 21
1549.999998797215
 31
0.0
  0
LINE
  5
209E
330
18
100
AcDbEntity
  8
1
  6
Continuous
100
AcDbLine
 10
1199.999998336814
 20
1549.999998797215
 30
0.0
 11
1199.999998336814
 21
1649.999998797215
 31
0.0
  0
LINE
  5
209F
330
18
100
AcDbEntity
  8
1
  6
Continuous
100
AcDbLine
 10
799.9999983368143
 20
1549.999998797215
 30
0.0
 11
799.9999983368143
 21
1649.999998797215
 31
0.0
  0
TEXT
  5
20A0
330
18
100
AcDbEntity
  8
1
  6
Continuous
100
AcDbText
 10
1235.333333333333
 20
1617.5
 30
0.0
 40
25.0
  1
負荷容量
 41
0.7
  7
M7
 72
     1
 11
1275.0
 21
1630.0
 31
0.0
100
AcDbText
 73
     2
  0
TEXT
  5
20A3
330
18
100
AcDbEntity
  8
1
  6
Continuous
100
AcDbText
 10
960.3333316701476
 20
1587.499998797215
 30
0.0
 40
25.0
  1
負荷名称
 41
0.7
  7
M7
 72
     1
 11
999.9999983368143
 21
1599.999998797215
 31
0.0
100
AcDbText
 73
     2
  0
TEXT
  5
20A6
330
18
100
AcDbEntity
  8
1
  6
Continuous
100
AcDbText
 10
1379.583333333333
 20
1562.5
 30
0.0
 40
25.0
  1
(V)
 41
0.7
  7
M7
 72
     1
 11
1400.0
 21
1575.0
 31
0.0
100
AcDbText
 73
     2
  0
TEXT
  5
20A7
330
18
100
AcDbEntity
  8
1
  6
Continuous
100
AcDbText
 10
1381.333333333333
 20
1617.5
 30
0.0
 40
25.0
  1
電圧
 41
0.7
  7
M7
 72
     1
 11
1400.0
 21
1630.0
 31
0.0
100
AcDbText
 73
     2
  0
TEXT
  5
20A8
330
18
100
AcDbEntity
  8
1
  6
Continuous
100
AcDbText
 10
1245.833333333333
 20
1562.5
 30
0.0
 40
25.0
  1
(VA)
 41
0.7
  7
M7
 72
     1
 11
1275.0
 21
1575.0
 31
0.0
100
AcDbText
 73
     2
  0
TEXT
  5
20A9
330
18
100
AcDbEntity
  8
1
  6
Continuous
100
AcDbText
 10
1482.499998336814
 20
1587.499998797215
 30
0.0
 40
25.0
  1
No.
 41
0.7
  7
M7
 72
     1
 11
1499.999998336814
 21
1599.999998797215
 31
0.0
100
AcDbText
 73
     2
  0
INSERT
  5
20C7
330
18
100
AcDbEntity
  8
1
  6
Continuous
100
AcDbBlockReference
 66
     1
  2
UJCB3
 10
1950.000001
 20
2324.999999000001
 30
0.0
  0
ATTRIB
  5
20C8
330
20C7
100
AcDbEntity
  8
ZOKUSEI
  6
Continuous
100
AcDbText
 10
2100.000001
 20
2344.999999000001
 30
0.0
 40
25.0
  1
MCCB M
 41
0.7
  7
M7
100
AcDbAttribute
  2
KIGO
 70
     8
  0
ATTRIB
  5
20C9
330
20C7
100
AcDbEntity
  8
ZOKUSEI
100
AcDbText
 10
2219.999997
 20
2344.999999
 30
0.0
 40
25.0
  1
　3P
 41
0.7
  7
M7
100
AcDbAttribute
  2
KYOKU
 70
     0
  0
ATTRIB
  5
20CA
330
20C7
100
AcDbEntity
  8
ZOKUSEI
100
AcDbText
 10
2100.0
 20
2304.999991036936
 30
0.0
 40
25.0
  1
225AF
 41
0.7
  7
M7
100
AcDbAttribute
  2
TEIKAKU1
 70
     0
  0
ATTRIB
  5
20CB
330
20C7
100
AcDbEntity
  8
ZOKUSEI
100
AcDbText
 10
2220.0
 20
2304.999991036936
 30
0.0
 40
25.0
  1
150AT
 41
0.7
  7
M7
100
AcDbAttribute
  2
TEIKAKU2
 70
     0
  0
ATTRIB
  5
20CC
330
20C7
100
AcDbEntity
  8
ZOKUSEI
100
AcDbText
 10
2099.999999
 20
2265.0
 30
0.0
 40
25.0
  1

 41
0.7
  7
M7
100
AcDbAttribute
  2
KATA
 70
     0
  0
SEQEND
  5
20CD
330
20C7
100
AcDbEntity
  8
1
  6
Continuous
  0
LINE
  5
21DF
330
18
100
AcDbEntity
  8
1
  6
Continuous
100
AcDbLine
 10
2000.0
 20
575.0
 30
0.0
 11
2000.0
 21
2225.0
 31
0.0
  0
LINE
  5
2274
330
18
100
AcDbEntity
  8
1
  6
Continuous
100
AcDbLine
 10
1950.0
 20
575.0
 30
0.0
 11
1950.0
 21
2225.0
 31
0.0
  0
LINE
  5
2275
330
18
100
AcDbEntity
  8
1
  6
Continuous
100
AcDbLine
 10
2050.0
 20
2225.0
 30
0.0
 11
2050.0
 21
575.0
 31
0.0
  0
TEXT
  5
25B4
330
18
100
AcDbEntity
  8
1
  6
Continuous
100
AcDbText
 10
462.3333333333333
 20
1412.5
 30
0.0
 40
25.0
  1
感度電流 30mA(BV-C2)
 41
0.7
  7
M7
 72
     1
 11
600.0
 21
1425.0
 31
0.0
100
AcDbText
 73
     2
  0
TEXT
  5
25B5
330
18
100
AcDbEntity
  8
1
  6
Continuous
100
AcDbText
 10
447.1666666666666
 20
1462.5
 30
0.0
 40
25.0
  1
ELCB2P 2E 50AF 20AT
 41
0.7
  7
M7
 72
     1
 11
600.0
 21
1475.0
 31
0.0
100
AcDbText
 73
     2
  0
LWPOLYLINE
  5
25B6
330
18
100
AcDbEntity
  8
1
  6
Continuous
100
AcDbPolyline
 90
        4
 70
     1
 43
0.0
 10
1550.000000716441
 20
1499.999998928792
 10
400.0000007164417
 20
1499.999998928792
 10
400.0
 20
400.0
 10
1550.0
 20
400.0
  0
LINE
  5
25B8
330
18
100
AcDbEntity
  8
1
  6
Continuous
100
AcDbLine
 10
800.0000007164416
 20
1499.999998928792
 30
0.0
 11
800.0
 21
400.0
 31
0.0
  0
LINE
  5
25B9
330
18
100
AcDbEntity
  8
1
  6
Continuous
100
AcDbLine
 10
1200.0
 20
400.0
 30
0.0
 11
1200.000000716441
 21
1499.999998928792
 31
0.0
  0
TEXT
  5
25BA
330
18
100
AcDbEntity
  8
1
  6
Continuous
100
AcDbText
 10
1376.666666666666
 20
1437.5
 30
0.0
 40
25.0
  1
200
 41
0.7
  7
M7
 72
     1
 11
1400.0
 21
1450.0
 31
0.0
100
AcDbText
 73
     2
  0
LINE
  5
25BB
330
18
100
AcDbEntity
  8
1
  6
Continuous
100
AcDbLine
 10
1350.000000716441
 20
1499.999998928792
 30
0.0
 11
1350.0
 21
400.0
 31
0.0
  0
LINE
  5
25BC
330
18
100
AcDbEntity
  8
1
  6
Continuous
100
AcDbLine
 10
1450.0
 20
400.0
 30
0.0
 11
1450.000000716441
 21
1499.999998928792
 31
0.0
  0
LINE
  5
25C0
330
18
100
AcDbEntity
  8
1
  6
DOT
100
AcDbLine
 10
1600.0
 20
1425.0
 30
0.0
 11
1750.0
 21
1425.0
 31
0.0
  0
LINE
  5
25C1
330
18
100
AcDbEntity
  8
1
  6
DOT
100
AcDbLine
 10
1600.0
 20
1475.0
 30
0.0
 11
1750.0
 21
1475.0
 31
0.0
  0
LINE
  5
25C5
330
18
100
AcDbEntity
  8
1
  6
DOT
100
AcDbLine
 10
2250.0
 20
1475.0
 30
0.0
 11
2400.0
 21
1475.0
 31
0.0
  0
LINE
  5
25C6
330
18
100
AcDbEntity
  8
1
  6
DOT
100
AcDbLine
 10
2250.0
 20
1425.0
 30
0.0
 11
2400.0
 21
1425.0
 31
0.0
  0
LWPOLYLINE
  5
25FC
330
18
100
AcDbEntity
  8
1
  6
Continuous
100
AcDbPolyline
 90
        4
 70
     1
 43
0.0
 10
2449.999998336814
 20
1499.999998797215
 10
3599.999998336814
 20
1499.999998797215
 10
3600.0
 20
400.0
 10
2450.0
 20
400.0
  0
TEXT
  5
25FE
330
18
100
AcDbEntity
  8
1
  6
Continuous
100
AcDbText
 10
2576.666666666666
 20
1437.5
 30
0.0
 40
25.0
  1
200
 41
0.7
  7
M7
 72
     1
 11
2600.0
 21
1450.0
 31
0.0
100
AcDbText
 73
     2
  0
LINE
  5
2601
330
18
100
AcDbEntity
  8
1
  6
Continuous
100
AcDbLine
 10
2550.0
 20
400.0
 30
0.0
 11
2549.999998336814
 21
1499.999998797215
 31
0.0
  0
LINE
  5
2602
330
18
100
AcDbEntity
  8
1
  6
Continuous
100
AcDbLine
 10
2649.999998336814
 20
1499.999998797215
 30
0.0
 11
2650.0
 21
400.0
 31
0.0
  0
LINE
  5
2603
330
18
100
AcDbEntity
  8
1
  6
Continuous
100
AcDbLine
 10
2800.0
 20
400.0
 30
0.0
 11
2799.999998336814
 21
1499.999998797215
 31
0.0
  0
TEXT
  5
2605
330
18
100
AcDbEntity
  8
1
  6
Continuous
100
AcDbText
 10
3247.166666666666
 20
1462.5
 30
0.0
 40
25.0
  1
ELCB2P 2E 50AF 20AT
 41
0.7
  7
M7
 72
     1
 11
3400.0
 21
1475.0
 31
0.0
100
AcDbText
 73
     2
  0
LINE
  5
2606
330
18
100
AcDbEntity
  8
1
  6
Continuous
100
AcDbLine
 10
3199.999998336814
 20
1499.999998797215
 30
0.0
 11
3200.0
 21
400.0
 31
0.0
  0
INSERT
  5
2709
330
18
100
AcDbEntity
  8
1
  6
Continuous
100
AcDbBlockReference
  2
UJEB6
 10
1950.0
 20
1475.0
 30
0.0
  0
INSERT
  5
2713
330
18
100
AcDbEntity
  8
1
  6
Continuous
100
AcDbBlockReference
  2
UJEB10
 10
2050.0
 20
1475.0
 30
0.0
  0
TEXT
  5
290B
330
18
100
AcDbEntity
  8
1
  6
Continuous
100
AcDbText
 10
1944.166666666666
 20
2587.5
 30
0.0
 40
25.0
  1
R
 41
0.7
  7
M7
 72
     1
 11
1950.0
 21
2600.0
 31
0.0
100
AcDbText
 73
     2
  0
TEXT
  5
290C
330
18
100
AcDbEntity
  8
1
  6
Continuous
100
AcDbText
 10
1994.166666666666
 20
2587.5
 30
0.0
 40
25.0
  1
N
 41
0.7
  7
M7
 72
     1
 11
2000.0
 21
2600.0
 31
0.0
100
AcDbText
 73
     2
  0
TEXT
  5
290D
330
18
100
AcDbEntity
  8
1
  6
Continuous
100
AcDbText
 10
2044.166666666666
 20
2587.5
 30
0.0
 40
25.0
  1
T
 41
0.7
  7
M7
 72
     1
 11
2050.0
 21
2600.0
 31
0.0
100
AcDbText
 73
     2
  0
LINE
  5
2910
330
18
100
AcDbEntity
  8
1
  6
DOT
100
AcDbLine
 10
2050.0
 20
2425.0
 30
0.0
 11
2050.0
 21
2575.0
 31
0.0
  0
LINE
  5
2937
330
18
100
AcDbEntity
  8
1
  6
Continuous
100
AcDbLine
 10
1950.0
 20
1475.0
 30
0.0
 11
2050.0
 21
1475.0
 31
0.0
  0
LINE
  5
2938
330
18
100
AcDbEntity
  8
1
  6
Continuous
100
AcDbLine
 10
2050.0
 20
1425.0
 30
0.0
 11
1950.0
 21
1425.0
 31
0.0
  0
LWPOLYLINE
  5
2939
330
18
100
AcDbEntity
  8
KUROMARU
  6
Continuous
100
AcDbPolyline
 90
        2
 70
     1
 43
5.0
 10
1947.5
 20
1475.0
 42
0.9999999999999998
 10
1952.5
 20
1475.0
 42
1.0
  0
LWPOLYLINE
  5
293A
330
18
100
AcDbEntity
  8
KUROMARU
  6
Continuous
100
AcDbPolyline
 90
        2
 70
     1
 43
5.0
 10
2047.5
 20
1425.0
 42
0.9999999999999998
 10
2052.5
 20
1425.0
 42
1.0
  0
TEXT
  5
2940
330
18
100
AcDbEntity
  8
1
  6
Continuous
100
AcDbText
 10
3262.333333333333
 20
1412.5
 30
0.0
 40
25.0
  1
感度電流 30mA(BV-C2)
 41
0.7
  7
M7
 72
     1
 11
3400.0
 21
1425.0
 31
0.0
100
AcDbText
 73
     2
  0
LINE
  5
2942
330
18
100
AcDbEntity
  8
1
  6
Continuous
100
AcDbLine
 10
400.0
 20
1300.0
 30
0.0
 11
1550.0
 21
1300.0
 31
0.0
  0
LINE
  5
2943
330
18
100
AcDbEntity
  8
1
  6
Continuous
100
AcDbLine
 10
2450.0
 20
1300.0
 30
0.0
 11
3600.0
 21
1300.0
 31
0.0
  0
TEXT
  5
29C4
330
18
100
AcDbEntity
  8
1
  6
Continuous
100
AcDbText
 10
1495.625
 20
1437.5
 30
0.0
 40
25.0
  1
1
 41
0.7
  7
M7
 72
     1
 11
1500.0
 21
1450.0
 31
0.0
100
AcDbText
 73
     2
  0
INSERT
  5
29CA
330
18
100
AcDbEntity
  8
1
  6
Continuous
100
AcDbBlockReference
  2
SYO002
 10
1500.0
 20
1450.0
 30
0.0
 41
50.0
 42
50.0
 43
50.0
  0
TEXT
  5
29CB
330
18
100
AcDbEntity
  8
1
  6
Continuous
100
AcDbText
 10
2494.166666666666
 20
1437.5
 30
0.0
 40
25.0
  1
2
 41
0.7
  7
M7
 72
     1
 11
2500.0
 21
1450.0
 31
0.0
100
AcDbText
 73
     2
  0
INSERT
  5
29CC
330
18
100
AcDbEntity
  8
1
  6
Continuous
100
AcDbBlockReference
  2
SYO002
 10
2500.0
 20
1450.0
 30
0.0
 41
50.0
 42
50.0
 43
50.0
  0
TEXT
  5
2A3C
330
18
100
AcDbEntity
  8
1
  6
Continuous
100
AcDbText
 10
462.3333333333333
 20
1212.5
 30
0.0
 40
25.0
  1
感度電流 30mA(BV-C1)
 41
0.7
  7
M7
 72
     1
 11
600.0
 21
1225.0
 31
0.0
100
AcDbText
 73
     2
  0
TEXT
  5
2A3D
330
18
100
AcDbEntity
  8
1
  6
Continuous
100
AcDbText
 10
447.1666666666666
 20
1262.5
 30
0.0
 40
25.0
  1
ELCB2P 1E 50AF 20AT
 41
0.7
  7
M7
 72
     1
 11
600.0
 21
1275.0
 31
0.0
100
AcDbText
 73
     2
  0
LINE
  5
2A3E
330
18
100
AcDbEntity
  8
1
  6
Continuous
100
AcDbLine
 10
400.0
 20
1200.0
 30
0.0
 11
1550.0
 21
1200.0
 31
0.0
  0
TEXT
  5
2A3F
330
18
100
AcDbEntity
  8
1
  6
Continuous
100
AcDbText
 10
1376.666666666666
 20
1237.5
 30
0.0
 40
25.0
  1
100
 41
0.7
  7
M7
 72
     1
 11
1400.0
 21
1250.0
 31
0.0
100
AcDbText
 73
     2
  0
LWPOLYLINE
  5
2A40
330
18
100
AcDbEntity
  8
KUROMARU
  6
Continuous
100
AcDbPolyline
 90
        2
 70
     1
 43
5.0
 10
1947.5
 20
1275.0
 42
0.9999999999999996
 10
1952.5
 20
1275.0
 42
0.9999999999999998
  0
LINE
  5
2A41
330
18
100
AcDbEntity
  8
1
  6
Continuous
100
AcDbLine
 10
1950.0
 20
1225.0
 30
0.0
 11
1975.0
 21
1225.0
 31
0.0
  0
LINE
  5
2A42
330
18
100
AcDbEntity
  8
1
  6
DOT
100
AcDbLine
 10
1600.0
 20
1225.0
 30
0.0
 11
1750.0
 21
1225.0
 31
0.0
  0
LINE
  5
2A43
330
18
100
AcDbEntity
  8
1
  6
DOT
100
AcDbLine
 10
1600.0
 20
1275.0
 30
0.0
 11
1750.0
 21
1275.0
 31
0.0
  0
INSERT
  5
2A44
330
18
100
AcDbEntity
  8
1
  6
Continuous
100
AcDbBlockReference
  2
UJEB6
 10
1950.0
 20
1275.0
 30
0.0
  0
LINE
  5
2A45
330
18
100
AcDbEntity
  8
1
  6
DOT
100
AcDbLine
 10
2250.0
 20
1275.0
 30
0.0
 11
2400.0
 21
1275.0
 31
0.0
  0
LINE
  5
2A46
330
18
100
AcDbEntity
  8
1
  6
DOT
100
AcDbLine
 10
2250.0
 20
1225.0
 30
0.0
 11
2400.0
 21
1225.0
 31
0.0
  0
INSERT
  5
2A47
330
18
100
AcDbEntity
  8
1
  6
Continuous
100
AcDbBlockReference
  2
UJEB10
 10
2050.0
 20
1275.0
 30
0.0
  0
LINE
  5
2A48
330
18
100
AcDbEntity
  8
1
  6
Continuous
100
AcDbLine
 10
1975.0
 20
1225.0
 30
0.0
 11
2025.0
 21
1275.0
 31
0.0
  0
LWPOLYLINE
  5
2A49
330
18
100
AcDbEntity
  8
KUROMARU
  6
Continuous
100
AcDbPolyline
 90
        2
 70
     1
 43
5.0
 10
2047.5
 20
1225.0
 42
0.9999999999999996
 10
2052.5
 20
1225.0
 42
0.9999999999999998
  0
LINE
  5
2A4A
330
18
100
AcDbEntity
  8
1
  6
Continuous
100
AcDbLine
 10
2025.0
 20
1275.0
 30
0.0
 11
2050.0
 21
1275.0
 31
0.0
  0
LWPOLYLINE
  5
2A4B
330
18
100
AcDbEntity
  8
KUROMARU
  6
Continuous
100
AcDbPolyline
 90
        2
 70
     1
 43
5.0
 10
1997.5
 20
1250.0
 42
0.9999999999999996
 10
2002.5
 20
1250.0
 42
0.9999999999999998
  0
LINE
  5
2A4C
330
18
100
AcDbEntity
  8
1
  6
Continuous
100
AcDbLine
 10
2450.0
 20
1200.0
 30
0.0
 11
3600.0
 21
1200.0
 31
0.0
  0
TEXT
  5
2A4D
330
18
100
AcDbEntity
  8
1
  6
Continuous
100
AcDbText
 10
2576.666666666666
 20
1237.5
 30
0.0
 40
25.0
  1
100
 41
0.7
  7
M7
 72
     1
 11
2600.0
 21
1250.0
 31
0.0
100
AcDbText
 73
     2
  0
TEXT
  5
2A4E
330
18
100
AcDbEntity
  8
1
  6
Continuous
100
AcDbText
 10
3247.166666666666
 20
1262.5
 30
0.0
 40
25.0
  1
ELCB2P 1E 50AF 20AT
 41
0.7
  7
M7
 72
     1
 11
3400.0
 21
1275.0
 31
0.0
100
AcDbText
 73
     2
  0
TEXT
  5
2A4F
330
18
100
AcDbEntity
  8
1
  6
Continuous
100
AcDbText
 10
3262.333333333333
 20
1212.5
 30
0.0
 40
25.0
  1
感度電流 30mA(BV-C1)
 41
0.7
  7
M7
 72
     1
 11
3400.0
 21
1225.0
 31
0.0
100
AcDbText
 73
     2
  0
TEXT
  5
2A50
330
18
100
AcDbEntity
  8
1
  6
Continuous
100
AcDbText
 10
462.3333333333333
 20
1112.5
 30
0.0
 40
25.0
  1
感度電流 30mA(BV-C1)
 41
0.7
  7
M7
 72
     1
 11
600.0
 21
1125.0
 31
0.0
100
AcDbText
 73
     2
  0
TEXT
  5
2A51
330
18
100
AcDbEntity
  8
1
  6
Continuous
100
AcDbText
 10
447.1666666666666
 20
1162.5
 30
0.0
 40
25.0
  1
ELCB2P 1E 50AF 20AT
 41
0.7
  7
M7
 72
     1
 11
600.0
 21
1175.0
 31
0.0
100
AcDbText
 73
     2
  0
LINE
  5
2A52
330
18
100
AcDbEntity
  8
1
  6
Continuous
100
AcDbLine
 10
400.0
 20
1100.0
 30
0.0
 11
1550.0
 21
1100.0
 31
0.0
  0
TEXT
  5
2A53
330
18
100
AcDbEntity
  8
1
  6
Continuous
100
AcDbText
 10
1376.666666666666
 20
1137.499999999999
 30
0.0
 40
25.0
  1
100
 41
0.7
  7
M7
 72
     1
 11
1400.0
 21
1150.0
 31
0.0
100
AcDbText
 73
     2
  0
LWPOLYLINE
  5
2A54
330
18
100
AcDbEntity
  8
KUROMARU
  6
Continuous
100
AcDbPolyline
 90
        2
 70
     1
 43
5.0
 10
1947.5
 20
1175.0
 42
0.9999999999999996
 10
1952.5
 20
1175.0
 42
0.9999999999999998
  0
LINE
  5
2A55
330
18
100
AcDbEntity
  8
1
  6
Continuous
100
AcDbLine
 10
1950.0
 20
1125.0
 30
0.0
 11
1975.0
 21
1125.0
 31
0.0
  0
LINE
  5
2A56
330
18
100
AcDbEntity
  8
1
  6
DOT
100
AcDbLine
 10
1600.0
 20
1125.0
 30
0.0
 11
1750.0
 21
1125.0
 31
0.0
  0
LINE
  5
2A57
330
18
100
AcDbEntity
  8
1
  6
DOT
100
AcDbLine
 10
1600.0
 20
1175.0
 30
0.0
 11
1750.0
 21
1175.0
 31
0.0
  0
INSERT
  5
2A58
330
18
100
AcDbEntity
  8
1
  6
Continuous
100
AcDbBlockReference
  2
UJEB6
 10
1950.0
 20
1175.0
 30
0.0
  0
LINE
  5
2A59
330
18
100
AcDbEntity
  8
1
  6
DOT
100
AcDbLine
 10
2250.0
 20
1175.0
 30
0.0
 11
2400.0
 21
1175.0
 31
0.0
  0
LINE
  5
2A5A
330
18
100
AcDbEntity
  8
1
  6
DOT
100
AcDbLine
 10
2250.0
 20
1125.0
 30
0.0
 11
2400.0
 21
1125.0
 31
0.0
  0
INSERT
  5
2A5B
330
18
100
AcDbEntity
  8
1
  6
Continuous
100
AcDbBlockReference
  2
UJEB10
 10
2050.0
 20
1175.0
 30
0.0
  0
LINE
  5
2A5C
330
18
100
AcDbEntity
  8
1
  6
Continuous
100
AcDbLine
 10
1975.0
 20
1125.0
 30
0.0
 11
2025.0
 21
1175.0
 31
0.0
  0
LWPOLYLINE
  5
2A5D
330
18
100
AcDbEntity
  8
KUROMARU
  6
Continuous
100
AcDbPolyline
 90
        2
 70
     1
 43
5.0
 10
2047.5
 20
1125.0
 42
0.9999999999999996
 10
2052.5
 20
1125.0
 42
0.9999999999999998
  0
LINE
  5
2A5E
330
18
100
AcDbEntity
  8
1
  6
Continuous
100
AcDbLine
 10
2025.0
 20
1175.0
 30
0.0
 11
2050.0
 21
1175.0
 31
0.0
  0
LWPOLYLINE
  5
2A5F
330
18
100
AcDbEntity
  8
KUROMARU
  6
Continuous
100
AcDbPolyline
 90
        2
 70
     1
 43
5.0
 10
1997.5
 20
1150.0
 42
0.9999999999999996
 10
2002.5
 20
1150.0
 42
0.9999999999999998
  0
LINE
  5
2A60
330
18
100
AcDbEntity
  8
1
  6
Continuous
100
AcDbLine
 10
2450.0
 20
1100.0
 30
0.0
 11
3600.0
 21
1100.0
 31
0.0
  0
TEXT
  5
2A61
330
18
100
AcDbEntity
  8
1
  6
Continuous
100
AcDbText
 10
2576.666666666666
 20
1137.499999999999
 30
0.0
 40
25.0
  1
100
 41
0.7
  7
M7
 72
     1
 11
2600.0
 21
1150.0
 31
0.0
100
AcDbText
 73
     2
  0
TEXT
  5
2A62
330
18
100
AcDbEntity
  8
1
  6
Continuous
100
AcDbText
 10
3247.166666666666
 20
1162.5
 30
0.0
 40
25.0
  1
ELCB2P 1E 50AF 20AT
 41
0.7
  7
M7
 72
     1
 11
3400.0
 21
1175.0
 31
0.0
100
AcDbText
 73
     2
  0
TEXT
  5
2A63
330
18
100
AcDbEntity
  8
1
  6
Continuous
100
AcDbText
 10
3262.333333333333
 20
1112.5
 30
0.0
 40
25.0
  1
感度電流 30mA(BV-C1)
 41
0.7
  7
M7
 72
     1
 11
3400.0
 21
1125.0
 31
0.0
100
AcDbText
 73
     2
  0
TEXT
  5
2A64
330
18
100
AcDbEntity
  8
1
  6
Continuous
100
AcDbText
 10
462.3333333333333
 20
1012.499999999999
 30
0.0
 40
25.0
  1
感度電流 30mA(BV-C1)
 41
0.7
  7
M7
 72
     1
 11
600.0
 21
1025.0
 31
0.0
100
AcDbText
 73
     2
  0
TEXT
  5
2A65
330
18
100
AcDbEntity
  8
1
  6
Continuous
100
AcDbText
 10
447.1666666666666
 20
1062.5
 30
0.0
 40
25.0
  1
ELCB2P 1E 50AF 20AT
 41
0.7
  7
M7
 72
     1
 11
600.0
 21
1075.0
 31
0.0
100
AcDbText
 73
     2
  0
LINE
  5
2A66
330
18
100
AcDbEntity
  8
1
  6
Continuous
100
AcDbLine
 10
400.0
 20
1000.0
 30
0.0
 11
1550.0
 21
1000.0
 31
0.0
  0
TEXT
  5
2A67
330
18
100
AcDbEntity
  8
1
  6
Continuous
100
AcDbText
 10
1376.666666666666
 20
1037.5
 30
0.0
 40
25.0
  1
100
 41
0.7
  7
M7
 72
     1
 11
1400.0
 21
1050.0
 31
0.0
100
AcDbText
 73
     2
  0
LWPOLYLINE
  5
2A68
330
18
100
AcDbEntity
  8
KUROMARU
  6
Continuous
100
AcDbPolyline
 90
        2
 70
     1
 43
5.0
 10
1947.5
 20
1075.0
 42
0.9999999999999996
 10
1952.5
 20
1075.0
 42
0.9999999999999998
  0
LINE
  5
2A69
330
18
100
AcDbEntity
  8
1
  6
Continuous
100
AcDbLine
 10
1950.0
 20
1025.0
 30
0.0
 11
1975.0
 21
1025.0
 31
0.0
  0
LINE
  5
2A6A
330
18
100
AcDbEntity
  8
1
  6
DOT
100
AcDbLine
 10
1600.0
 20
1025.0
 30
0.0
 11
1750.0
 21
1025.0
 31
0.0
  0
LINE
  5
2A6B
330
18
100
AcDbEntity
  8
1
  6
DOT
100
AcDbLine
 10
1600.0
 20
1075.0
 30
0.0
 11
1750.0
 21
1075.0
 31
0.0
  0
INSERT
  5
2A6C
330
18
100
AcDbEntity
  8
1
  6
Continuous
100
AcDbBlockReference
  2
UJEB6
 10
1950.0
 20
1075.0
 30
0.0
  0
LINE
  5
2A6D
330
18
100
AcDbEntity
  8
1
  6
DOT
100
AcDbLine
 10
2250.0
 20
1075.0
 30
0.0
 11
2400.0
 21
1075.0
 31
0.0
  0
LINE
  5
2A6E
330
18
100
AcDbEntity
  8
1
  6
DOT
100
AcDbLine
 10
2250.0
 20
1025.0
 30
0.0
 11
2400.0
 21
1025.0
 31
0.0
  0
INSERT
  5
2A6F
330
18
100
AcDbEntity
  8
1
  6
Continuous
100
AcDbBlockReference
  2
UJEB10
 10
2050.0
 20
1075.0
 30
0.0
  0
LINE
  5
2A70
330
18
100
AcDbEntity
  8
1
  6
Continuous
100
AcDbLine
 10
1975.0
 20
1025.0
 30
0.0
 11
2025.0
 21
1075.0
 31
0.0
  0
LWPOLYLINE
  5
2A71
330
18
100
AcDbEntity
  8
KUROMARU
  6
Continuous
100
AcDbPolyline
 90
        2
 70
     1
 43
5.0
 10
2047.5
 20
1025.0
 42
0.9999999999999996
 10
2052.5
 20
1025.0
 42
0.9999999999999998
  0
LINE
  5
2A72
330
18
100
AcDbEntity
  8
1
  6
Continuous
100
AcDbLine
 10
2025.0
 20
1075.0
 30
0.0
 11
2050.0
 21
1075.0
 31
0.0
  0
LWPOLYLINE
  5
2A73
330
18
100
AcDbEntity
  8
KUROMARU
  6
Continuous
100
AcDbPolyline
 90
        2
 70
     1
 43
5.0
 10
1997.5
 20
1050.0
 42
0.9999999999999996
 10
2002.5
 20
1050.0
 42
0.9999999999999998
  0
LINE
  5
2A74
330
18
100
AcDbEntity
  8
1
  6
Continuous
100
AcDbLine
 10
2450.0
 20
1000.0
 30
0.0
 11
3600.0
 21
1000.0
 31
0.0
  0
TEXT
  5
2A75
330
18
100
AcDbEntity
  8
1
  6
Continuous
100
AcDbText
 10
2576.666666666666
 20
1037.5
 30
0.0
 40
25.0
  1
100
 41
0.7
  7
M7
 72
     1
 11
2600.0
 21
1050.0
 31
0.0
100
AcDbText
 73
     2
  0
TEXT
  5
2A76
330
18
100
AcDbEntity
  8
1
  6
Continuous
100
AcDbText
 10
3247.166666666666
 20
1062.5
 30
0.0
 40
25.0
  1
ELCB2P 1E 50AF 20AT
 41
0.7
  7
M7
 72
     1
 11
3400.0
 21
1075.0
 31
0.0
100
AcDbText
 73
     2
  0
TEXT
  5
2A77
330
18
100
AcDbEntity
  8
1
  6
Continuous
100
AcDbText
 10
3262.333333333333
 20
1012.499999999999
 30
0.0
 40
25.0
  1
感度電流 30mA(BV-C1)
 41
0.7
  7
M7
 72
     1
 11
3400.0
 21
1025.0
 31
0.0
100
AcDbText
 73
     2
  0
TEXT
  5
2A78
330
18
100
AcDbEntity
  8
1
  6
Continuous
100
AcDbText
 10
462.3333333333333
 20
912.5
 30
0.0
 40
25.0
  1
感度電流 30mA(BV-C1)
 41
0.7
  7
M7
 72
     1
 11
600.0
 21
925.0
 31
0.0
100
AcDbText
 73
     2
  0
TEXT
  5
2A79
330
18
100
AcDbEntity
  8
1
  6
Continuous
100
AcDbText
 10
447.1666666666666
 20
962.5
 30
0.0
 40
25.0
  1
ELCB2P 1E 50AF 20AT
 41
0.7
  7
M7
 72
     1
 11
600.0
 21
975.0
 31
0.0
100
AcDbText
 73
     2
  0
LINE
  5
2A7A
330
18
100
AcDbEntity
  8
1
  6
Continuous
100
AcDbLine
 10
400.0
 20
900.0
 30
0.0
 11
1550.0
 21
900.0
 31
0.0
  0
TEXT
  5
2A7B
330
18
100
AcDbEntity
  8
1
  6
Continuous
100
AcDbText
 10
1376.666666666666
 20
937.5
 30
0.0
 40
25.0
  1
100
 41
0.7
  7
M7
 72
     1
 11
1400.0
 21
950.0
 31
0.0
100
AcDbText
 73
     2
  0
LWPOLYLINE
  5
2A7C
330
18
100
AcDbEntity
  8
KUROMARU
  6
Continuous
100
AcDbPolyline
 90
        2
 70
     1
 43
5.0
 10
1947.5
 20
975.0
 42
0.9999999999999996
 10
1952.5
 20
975.0
 42
0.9999999999999998
  0
LINE
  5
2A7D
330
18
100
AcDbEntity
  8
1
  6
Continuous
100
AcDbLine
 10
1950.0
 20
925.0
 30
0.0
 11
1975.0
 21
925.0
 31
0.0
  0
LINE
  5
2A7E
330
18
100
AcDbEntity
  8
1
  6
DOT
100
AcDbLine
 10
1600.0
 20
925.0
 30
0.0
 11
1750.0
 21
925.0
 31
0.0
  0
LINE
  5
2A7F
330
18
100
AcDbEntity
  8
1
  6
DOT
100
AcDbLine
 10
1600.0
 20
975.0
 30
0.0
 11
1750.0
 21
975.0
 31
0.0
  0
INSERT
  5
2A80
330
18
100
AcDbEntity
  8
1
  6
Continuous
100
AcDbBlockReference
  2
UJEB6
 10
1950.0
 20
975.0
 30
0.0
  0
LINE
  5
2A81
330
18
100
AcDbEntity
  8
1
  6
DOT
100
AcDbLine
 10
2250.0
 20
975.0
 30
0.0
 11
2400.0
 21
975.0
 31
0.0
  0
LINE
  5
2A82
330
18
100
AcDbEntity
  8
1
  6
DOT
100
AcDbLine
 10
2250.0
 20
925.0
 30
0.0
 11
2400.0
 21
925.0
 31
0.0
  0
INSERT
  5
2A83
330
18
100
AcDbEntity
  8
1
  6
Continuous
100
AcDbBlockReference
  2
UJEB10
 10
2050.0
 20
975.0
 30
0.0
  0
LINE
  5
2A84
330
18
100
AcDbEntity
  8
1
  6
Continuous
100
AcDbLine
 10
1975.0
 20
925.0
 30
0.0
 11
2025.0
 21
975.0
 31
0.0
  0
LWPOLYLINE
  5
2A85
330
18
100
AcDbEntity
  8
KUROMARU
  6
Continuous
100
AcDbPolyline
 90
        2
 70
     1
 43
5.0
 10
2047.5
 20
925.0
 42
0.9999999999999996
 10
2052.5
 20
925.0
 42
0.9999999999999998
  0
LINE
  5
2A86
330
18
100
AcDbEntity
  8
1
  6
Continuous
100
AcDbLine
 10
2025.0
 20
975.0
 30
0.0
 11
2050.0
 21
975.0
 31
0.0
  0
LWPOLYLINE
  5
2A87
330
18
100
AcDbEntity
  8
KUROMARU
  6
Continuous
100
AcDbPolyline
 90
        2
 70
     1
 43
5.0
 10
1997.5
 20
950.0
 42
0.9999999999999996
 10
2002.5
 20
950.0
 42
0.9999999999999998
  0
LINE
  5
2A88
330
18
100
AcDbEntity
  8
1
  6
Continuous
100
AcDbLine
 10
2450.0
 20
900.0
 30
0.0
 11
3600.0
 21
900.0
 31
0.0
  0
TEXT
  5
2A89
330
18
100
AcDbEntity
  8
1
  6
Continuous
100
AcDbText
 10
2576.666666666666
 20
937.5
 30
0.0
 40
25.0
  1
100
 41
0.7
  7
M7
 72
     1
 11
2600.0
 21
950.0
 31
0.0
100
AcDbText
 73
     2
  0
TEXT
  5
2A8A
330
18
100
AcDbEntity
  8
1
  6
Continuous
100
AcDbText
 10
3247.166666666666
 20
962.5
 30
0.0
 40
25.0
  1
ELCB2P 1E 50AF 20AT
 41
0.7
  7
M7
 72
     1
 11
3400.0
 21
975.0
 31
0.0
100
AcDbText
 73
     2
  0
TEXT
  5
2A8B
330
18
100
AcDbEntity
  8
1
  6
Continuous
100
AcDbText
 10
3262.333333333333
 20
912.5
 30
0.0
 40
25.0
  1
感度電流 30mA(BV-C1)
 41
0.7
  7
M7
 72
     1
 11
3400.0
 21
925.0
 31
0.0
100
AcDbText
 73
     2
  0
TEXT
  5
2A8C
330
18
100
AcDbEntity
  8
1
  6
Continuous
100
AcDbText
 10
462.3333333333333
 20
812.5
 30
0.0
 40
25.0
  1
感度電流 30mA(BV-C1)
 41
0.7
  7
M7
 72
     1
 11
600.0
 21
825.0
 31
0.0
100
AcDbText
 73
     2
  0
TEXT
  5
2A8D
330
18
100
AcDbEntity
  8
1
  6
Continuous
100
AcDbText
 10
447.1666666666666
 20
862.5
 30
0.0
 40
25.0
  1
ELCB2P 1E 50AF 20AT
 41
0.7
  7
M7
 72
     1
 11
600.0
 21
875.0
 31
0.0
100
AcDbText
 73
     2
  0
TEXT
  5
2A8F
330
18
100
AcDbEntity
  8
1
  6
Continuous
100
AcDbText
 10
1376.666666666666
 20
837.5
 30
0.0
 40
25.0
  1
100
 41
0.7
  7
M7
 72
     1
 11
1400.0
 21
850.0
 31
0.0
100
AcDbText
 73
     2
  0
LWPOLYLINE
  5
2A90
330
18
100
AcDbEntity
  8
KUROMARU
  6
Continuous
100
AcDbPolyline
 90
        2
 70
     1
 43
5.0
 10
1947.5
 20
875.0
 42
0.9999999999999996
 10
1952.5
 20
875.0
 42
0.9999999999999998
  0
LINE
  5
2A91
330
18
100
AcDbEntity
  8
1
  6
Continuous
100
AcDbLine
 10
1950.0
 20
825.0
 30
0.0
 11
1975.0
 21
825.0
 31
0.0
  0
LINE
  5
2A92
330
18
100
AcDbEntity
  8
1
  6
DOT
100
AcDbLine
 10
1600.0
 20
825.0
 30
0.0
 11
1750.0
 21
825.0
 31
0.0
  0
LINE
  5
2A93
330
18
100
AcDbEntity
  8
1
  6
DOT
100
AcDbLine
 10
1600.0
 20
875.0
 30
0.0
 11
1750.0
 21
875.0
 31
0.0
  0
INSERT
  5
2A94
330
18
100
AcDbEntity
  8
1
  6
Continuous
100
AcDbBlockReference
  2
UJEB6
 10
1950.0
 20
875.0
 30
0.0
  0
LINE
  5
2A95
330
18
100
AcDbEntity
  8
1
  6
DOT
100
AcDbLine
 10
2250.0
 20
875.0
 30
0.0
 11
2400.0
 21
875.0
 31
0.0
  0
LINE
  5
2A96
330
18
100
AcDbEntity
  8
1
  6
DOT
100
AcDbLine
 10
2250.0
 20
825.0
 30
0.0
 11
2400.0
 21
825.0
 31
0.0
  0
INSERT
  5
2A97
330
18
100
AcDbEntity
  8
1
  6
Continuous
100
AcDbBlockReference
  2
UJEB10
 10
2050.0
 20
875.0
 30
0.0
  0
LINE
  5
2A98
330
18
100
AcDbEntity
  8
1
  6
Continuous
100
AcDbLine
 10
1975.0
 20
825.0
 30
0.0
 11
2025.0
 21
875.0
 31
0.0
  0
LWPOLYLINE
  5
2A99
330
18
100
AcDbEntity
  8
KUROMARU
  6
Continuous
100
AcDbPolyline
 90
        2
 70
     1
 43
5.0
 10
2047.5
 20
825.0
 42
0.9999999999999996
 10
2052.5
 20
825.0
 42
0.9999999999999998
  0
LINE
  5
2A9A
330
18
100
AcDbEntity
  8
1
  6
Continuous
100
AcDbLine
 10
2025.0
 20
875.0
 30
0.0
 11
2050.0
 21
875.0
 31
0.0
  0
LWPOLYLINE
  5
2A9B
330
18
100
AcDbEntity
  8
KUROMARU
  6
Continuous
100
AcDbPolyline
 90
        2
 70
     1
 43
5.0
 10
1997.5
 20
850.0
 42
0.9999999999999996
 10
2002.5
 20
850.0
 42
0.9999999999999998
  0
TEXT
  5
2A9D
330
18
100
AcDbEntity
  8
1
  6
Continuous
100
AcDbText
 10
2576.666666666666
 20
837.5
 30
0.0
 40
25.0
  1
100
 41
0.7
  7
M7
 72
     1
 11
2600.0
 21
850.0
 31
0.0
100
AcDbText
 73
     2
  0
TEXT
  5
2A9E
330
18
100
AcDbEntity
  8
1
  6
Continuous
100
AcDbText
 10
3247.166666666666
 20
862.5
 30
0.0
 40
25.0
  1
ELCB2P 1E 50AF 20AT
 41
0.7
  7
M7
 72
     1
 11
3400.0
 21
875.0
 31
0.0
100
AcDbText
 73
     2
  0
TEXT
  5
2A9F
330
18
100
AcDbEntity
  8
1
  6
Continuous
100
AcDbText
 10
3262.333333333333
 20
812.5
 30
0.0
 40
25.0
  1
感度電流 30mA(BV-C1)
 41
0.7
  7
M7
 72
     1
 11
3400.0
 21
825.0
 31
0.0
100
AcDbText
 73
     2
  0
TEXT
  5
2B02
330
18
100
AcDbEntity
  8
1
  6
Continuous
100
AcDbText
 10
1494.166666666666
 20
1237.5
 30
0.0
 40
25.0
  1
A
 41
0.7
  7
M7
 72
     1
 11
1500.0
 21
1250.0
 31
0.0
100
AcDbText
 73
     2
  0
INSERT
  5
2B03
330
18
100
AcDbEntity
  8
1
  6
Continuous
100
AcDbBlockReference
  2
SYO001
 10
1500.0
 20
1250.0
 30
0.0
 41
50.0
 42
50.0
 43
50.0
  0
TEXT
  5
2B04
330
18
100
AcDbEntity
  8
1
  6
Continuous
100
AcDbText
 10
1494.166666666666
 20
1137.499999999999
 30
0.0
 40
25.0
  1
C
 41
0.7
  7
M7
 72
     1
 11
1500.0
 21
1150.0
 31
0.0
100
AcDbText
 73
     2
  0
INSERT
  5
2B05
330
18
100
AcDbEntity
  8
1
  6
Continuous
100
AcDbBlockReference
  2
SYO001
 10
1500.0
 20
1150.0
 30
0.0
 41
50.0
 42
50.0
 43
50.0
  0
TEXT
  5
2B06
330
18
100
AcDbEntity
  8
1
  6
Continuous
100
AcDbText
 10
1494.166666666666
 20
1037.5
 30
0.0
 40
25.0
  1
E
 41
0.7
  7
M7
 72
     1
 11
1500.0
 21
1050.0
 31
0.0
100
AcDbText
 73
     2
  0
INSERT
  5
2B07
330
18
100
AcDbEntity
  8
1
  6
Continuous
100
AcDbBlockReference
  2
SYO001
 10
1500.0
 20
1050.0
 30
0.0
 41
50.0
 42
50.0
 43
50.0
  0
TEXT
  5
2B08
330
18
100
AcDbEntity
  8
1
  6
Continuous
100
AcDbText
 10
1494.166666666666
 20
937.5
 30
0.0
 40
25.0
  1
G
 41
0.7
  7
M7
 72
     1
 11
1500.0
 21
950.0
 31
0.0
100
AcDbText
 73
     2
  0
INSERT
  5
2B09
330
18
100
AcDbEntity
  8
1
  6
Continuous
100
AcDbBlockReference
  2
SYO001
 10
1500.0
 20
950.0
 30
0.0
 41
50.0
 42
50.0
 43
50.0
  0
TEXT
  5
2B0A
330
18
100
AcDbEntity
  8
1
  6
Continuous
100
AcDbText
 10
1494.166666666666
 20
837.5
 30
0.0
 40
25.0
  1
I
 41
0.7
  7
M7
 72
     1
 11
1500.0
 21
850.0
 31
0.0
100
AcDbText
 73
     2
  0
INSERT
  5
2B0B
330
18
100
AcDbEntity
  8
1
  6
Continuous
100
AcDbBlockReference
  2
SYO001
 10
1500.0
 20
850.0
 30
0.0
 41
50.0
 42
50.0
 43
50.0
  0
TEXT
  5
2B10
330
18
100
AcDbEntity
  8
1
  6
Continuous
100
AcDbText
 10
2494.166666666666
 20
1237.5
 30
0.0
 40
25.0
  1
B
 41
0.7
  7
M7
 72
     1
 11
2500.0
 21
1250.0
 31
0.0
100
AcDbText
 73
     2
  0
INSERT
  5
2B11
330
18
100
AcDbEntity
  8
1
  6
Continuous
100
AcDbBlockReference
  2
SYO001
 10
2500.0
 20
1250.0
 30
0.0
 41
50.0
 42
50.0
 43
50.0
  0
TEXT
  5
2B12
330
18
100
AcDbEntity
  8
1
  6
Continuous
100
AcDbText
 10
2494.166666666666
 20
1137.499999999999
 30
0.0
 40
25.0
  1
D
 41
0.7
  7
M7
 72
     1
 11
2500.0
 21
1150.0
 31
0.0
100
AcDbText
 73
     2
  0
INSERT
  5
2B13
330
18
100
AcDbEntity
  8
1
  6
Continuous
100
AcDbBlockReference
  2
SYO001
 10
2500.0
 20
1150.0
 30
0.0
 41
50.0
 42
50.0
 43
50.0
  0
TEXT
  5
2B14
330
18
100
AcDbEntity
  8
1
  6
Continuous
100
AcDbText
 10
2494.166666666666
 20
1037.5
 30
0.0
 40
25.0
  1
F
 41
0.7
  7
M7
 72
     1
 11
2500.0
 21
1050.0
 31
0.0
100
AcDbText
 73
     2
  0
INSERT
  5
2B15
330
18
100
AcDbEntity
  8
1
  6
Continuous
100
AcDbBlockReference
  2
SYO001
 10
2500.0
 20
1050.0
 30
0.0
 41
50.0
 42
50.0
 43
50.0
  0
TEXT
  5
2B16
330
18
100
AcDbEntity
  8
1
  6
Continuous
100
AcDbText
 10
2494.166666666666
 20
937.5
 30
0.0
 40
25.0
  1
H
 41
0.7
  7
M7
 72
     1
 11
2500.0
 21
950.0
 31
0.0
100
AcDbText
 73
     2
  0
INSERT
  5
2B17
330
18
100
AcDbEntity
  8
1
  6
Continuous
100
AcDbBlockReference
  2
SYO001
 10
2500.0
 20
950.0
 30
0.0
 41
50.0
 42
50.0
 43
50.0
  0
TEXT
  5
2B18
330
18
100
AcDbEntity
  8
1
  6
Continuous
100
AcDbText
 10
2494.166666666666
 20
837.5
 30
0.0
 40
25.0
  1
J
 41
0.7
  7
M7
 72
     1
 11
2500.0
 21
850.0
 31
0.0
100
AcDbText
 73
     2
  0
INSERT
  5
2B19
330
18
100
AcDbEntity
  8
1
  6
Continuous
100
AcDbBlockReference
  2
SYO001
 10
2500.0
 20
850.0
 30
0.0
 41
50.0
 42
50.0
 43
50.0
  0
TEXT
  5
2B4F
330
18
100
AcDbEntity
  8
1
  6
Continuous
100
AcDbText
 10
1278.333333333333
 20
1237.5
 30
0.0
 40
25.0
  1
150
 41
0.7
  7
M7
 72
     2
 11
1325.0
 21
1250.0
 31
0.0
100
AcDbText
 73
     2
  0
TEXT
  5
2B50
330
18
100
AcDbEntity
  8
1
  6
Continuous
100
AcDbText
 10
1278.333333333333
 20
1137.499999999999
 30
0.0
 40
25.0
  1
150
 41
0.7
  7
M7
 72
     2
 11
1325.0
 21
1150.0
 31
0.0
100
AcDbText
 73
     2
  0
TEXT
  5
2B51
330
18
100
AcDbEntity
  8
1
  6
Continuous
100
AcDbText
 10
1278.333333333333
 20
1037.5
 30
0.0
 40
25.0
  1
500
 41
0.7
  7
M7
 72
     2
 11
1325.0
 21
1050.0
 31
0.0
100
AcDbText
 73
     2
  0
TEXT
  5
2B66
330
18
100
AcDbEntity
  8
1
  6
Continuous
100
AcDbText
 10
2728.333333333333
 20
1237.5
 30
0.0
 40
25.0
  1
150
 41
0.7
  7
M7
 72
     2
 11
2775.0
 21
1250.0
 31
0.0
100
AcDbText
 73
     2
  0
TEXT
  5
2D66
330
18
100
AcDbEntity
  8
1
  6
Continuous
100
AcDbText
 10
940.4999999999999
 20
537.5
 30
0.0
 40
25.0
  1
予備スペース
 41
0.7
  7
M7
 72
     1
 11
1000.0
 21
550.0
 31
0.0
100
AcDbText
 73
     2
  0
TEXT
  5
2D67
330
18
100
AcDbEntity
  8
1
  6
Continuous
100
AcDbText
 10
1376.666666666666
 20
537.5
 30
0.0
 40
25.0
  1
100
 41
0.7
  7
M7
 72
     1
 11
1400.0
 21
550.0
 31
0.0
100
AcDbText
 73
     2
  0
LINE
  5
2D68
330
18
100
AcDbEntity
  8
1
  6
Continuous
100
AcDbLine
 10
400.0
 20
500.0
 30
0.0
 11
1550.0
 21
500.0
 31
0.0
  0
TEXT
  5
2D69
330
18
100
AcDbEntity
  8
1
  6
Continuous
100
AcDbText
 10
940.4999999999999
 20
437.5
 30
0.0
 40
25.0
  1
予備スペース
 41
0.7
  7
M7
 72
     1
 11
1000.0
 21
450.0
 31
0.0
100
AcDbText
 73
     2
  0
TEXT
  5
2D6A
330
18
100
AcDbEntity
  8
1
  6
Continuous
100
AcDbText
 10
1376.666666666666
 20
437.5
 30
0.0
 40
25.0
  1
100
 41
0.7
  7
M7
 72
     1
 11
1400.0
 21
450.0
 31
0.0
100
AcDbText
 73
     2
  0
LINE
  5
2D6B
330
18
100
AcDbEntity
  8
1
  6
Continuous
100
AcDbLine
 10
2450.0
 20
500.0
 30
0.0
 11
3600.0
 21
500.0
 31
0.0
  0
TEXT
  5
2D6D
330
18
100
AcDbEntity
  8
1
  6
Continuous
100
AcDbText
 10
2576.666666666666
 20
537.5
 30
0.0
 40
25.0
  1
100
 41
0.7
  7
M7
 72
     1
 11
2600.0
 21
550.0
 31
0.0
100
AcDbText
 73
     2
  0
TEXT
  5
2D6E
330
18
100
AcDbEntity
  8
1
  6
Continuous
100
AcDbText
 10
2576.666666666666
 20
437.5
 30
0.0
 40
25.0
  1
100
 41
0.7
  7
M7
 72
     1
 11
2600.0
 21
450.0
 31
0.0
100
AcDbText
 73
     2
  0
TEXT
  5
2D6F
330
18
100
AcDbEntity
  8
1
  6
Continuous
100
AcDbText
 10
2940.5
 20
437.5
 30
0.0
 40
25.0
  1
予備スペース
 41
0.7
  7
M7
 72
     1
 11
3000.0
 21
450.0
 31
0.0
100
AcDbText
 73
     2
  0
TEXT
  5
2D70
330
18
100
AcDbEntity
  8
1
  6
Continuous
100
AcDbText
 10
2940.5
 20
537.5
 30
0.0
 40
25.0
  1
予備スペース
 41
0.7
  7
M7
 72
     1
 11
3000.0
 21
550.0
 31
0.0
100
AcDbText
 73
     2
  0
LINE
  5
2DB9
330
18
100
AcDbEntity
  8
1
  6
DOT
100
AcDbLine
 10
2000.0
 20
2425.0
 30
0.0
 11
2000.0
 21
2575.0
 31
0.0
  0
LINE
  5
2DBA
330
18
100
AcDbEntity
  8
1
  6
DOT
100
AcDbLine
 10
1950.0
 20
2425.0
 30
0.0
 11
1950.0
 21
2575.0
 31
0.0
  0
TEXT
  5
2DEC
330
18
100
AcDbEntity
  8
1
  6
Continuous
100
AcDbText
 10
2981.33333351074
 20
1437.5
 30
0.0
 40
25.0
  1
予備
 41
0.7
  7
M7
 72
     1
 11
3000.000000177406
 21
1450.0
 31
0.0
100
AcDbText
 73
     2
  0
CIRCLE
  5
2E6A
330
18
100
AcDbEntity
  8
1
  6
Continuous
100
AcDbCircle
 10
3700.0
 20
550.0
 30
0.0
 40
10.0
  0
CIRCLE
  5
2E6B
330
18
100
AcDbEntity
  8
1
  6
Continuous
100
AcDbCircle
 10
3750.0
 20
550.0
 30
0.0
 40
10.0
  0
LWPOLYLINE
  5
2E6C
330
18
100
AcDbEntity
  8
1
  6
Continuous
100
AcDbPolyline
 90
        4
 70
     1
 43
0.0
 10
3675.0
 20
575.0
 10
3775.0
 20
575.0
 10
3775.0
 20
525.0
 10
3675.0
 20
525.0
  0
LWPOLYLINE
  5
2EBB
330
18
100
AcDbEntity
  8
KUROMARU
  6
Continuous
100
AcDbPolyline
 90
        2
 70
     1
 43
5.0
 10
1947.5
 20
775.0
 42
0.9999999999999996
 10
1952.5
 20
775.0
 42
0.9999999999999998
  0
LINE
  5
2EBC
330
18
100
AcDbEntity
  8
1
  6
Continuous
100
AcDbLine
 10
1950.0
 20
725.0
 30
0.0
 11
1975.0
 21
725.0
 31
0.0
  0
LINE
  5
2EBD
330
18
100
AcDbEntity
  8
1
  6
Continuous
100
AcDbLine
 10
400.0
 20
800.0
 30
0.0
 11
1550.0
 21
800.0
 31
0.0
  0
TEXT
  5
2EBE
330
18
100
AcDbEntity
  8
1
  6
Continuous
100
AcDbText
 10
447.1666666666666
 20
762.5
 30
0.0
 40
25.0
  1
ELCB2P 1E 50AF 20AT
 41
0.7
  7
M7
 72
     1
 11
600.0
 21
775.0
 31
0.0
100
AcDbText
 73
     2
  0
TEXT
  5
2EBF
330
18
100
AcDbEntity
  8
1
  6
Continuous
100
AcDbText
 10
462.3333333333333
 20
712.5
 30
0.0
 40
25.0
  1
感度電流 30mA(BV-C1)
 41
0.7
  7
M7
 72
     1
 11
600.0
 21
725.0
 31
0.0
100
AcDbText
 73
     2
  0
LINE
  5
2EC2
330
18
100
AcDbEntity
  8
1
  6
DOT
100
AcDbLine
 10
1600.0
 20
775.0
 30
0.0
 11
1750.0
 21
775.0
 31
0.0
  0
LINE
  5
2EC3
330
18
100
AcDbEntity
  8
1
  6
DOT
100
AcDbLine
 10
1600.0
 20
725.0
 30
0.0
 11
1750.0
 21
725.0
 31
0.0
  0
TEXT
  5
2EC4
330
18
100
AcDbEntity
  8
1
  6
Continuous
100
AcDbText
 10
1376.666666666666
 20
737.5
 30
0.0
 40
25.0
  1
100
 41
0.7
  7
M7
 72
     1
 11
1400.0
 21
750.0
 31
0.0
100
AcDbText
 73
     2
  0
INSERT
  5
2EC5
330
18
100
AcDbEntity
  8
1
  6
Continuous
100
AcDbBlockReference
  2
SYO001
 10
1500.0
 20
750.0
 30
0.0
 41
50.0
 42
50.0
 43
50.0
  0
TEXT
  5
2EC6
330
18
100
AcDbEntity
  8
1
  6
Continuous
100
AcDbText
 10
1494.166666666666
 20
737.5
 30
0.0
 40
25.0
  1
K
 41
0.7
  7
M7
 72
     1
 11
1500.0
 21
750.0
 31
0.0
100
AcDbText
 73
     2
  0
INSERT
  5
2EC7
330
18
100
AcDbEntity
  8
1
  6
Continuous
100
AcDbBlockReference
  2
UJEB6
 10
1950.0
 20
775.0
 30
0.0
  0
LINE
  5
2EC8
330
18
100
AcDbEntity
  8
1
  6
Continuous
100
AcDbLine
 10
2450.0
 20
800.0
 30
0.0
 11
3600.0
 21
800.0
 31
0.0
  0
TEXT
  5
2EC9
330
18
100
AcDbEntity
  8
1
  6
Continuous
100
AcDbText
 10
2576.666666666666
 20
737.5
 30
0.0
 40
25.0
  1
100
 41
0.7
  7
M7
 72
     1
 11
2600.0
 21
750.0
 31
0.0
100
AcDbText
 73
     2
  0
LINE
  5
2ECA
330
18
100
AcDbEntity
  8
1
  6
DOT
100
AcDbLine
 10
2250.0
 20
775.0
 30
0.0
 11
2400.0
 21
775.0
 31
0.0
  0
LINE
  5
2ECB
330
18
100
AcDbEntity
  8
1
  6
DOT
100
AcDbLine
 10
2250.0
 20
725.0
 30
0.0
 11
2400.0
 21
725.0
 31
0.0
  0
INSERT
  5
2ECC
330
18
100
AcDbEntity
  8
1
  6
Continuous
100
AcDbBlockReference
  2
UJEB10
 10
2050.0
 20
775.0
 30
0.0
  0
LINE
  5
2ECD
330
18
100
AcDbEntity
  8
1
  6
Continuous
100
AcDbLine
 10
2025.0
 20
775.0
 30
0.0
 11
2050.0
 21
775.0
 31
0.0
  0
LINE
  5
2ECE
330
18
100
AcDbEntity
  8
1
  6
Continuous
100
AcDbLine
 10
1975.0
 20
725.0
 30
0.0
 11
2025.0
 21
775.0
 31
0.0
  0
LWPOLYLINE
  5
2ECF
330
18
100
AcDbEntity
  8
KUROMARU
  6
Continuous
100
AcDbPolyline
 90
        2
 70
     1
 43
5.0
 10
1997.5
 20
750.0
 42
0.9999999999999996
 10
2002.5
 20
750.0
 42
0.9999999999999998
  0
LWPOLYLINE
  5
2ED0
330
18
100
AcDbEntity
  8
KUROMARU
  6
Continuous
100
AcDbPolyline
 90
        2
 70
     1
 43
5.0
 10
2047.5
 20
725.0
 42
0.9999999999999996
 10
2052.5
 20
725.0
 42
0.9999999999999998
  0
INSERT
  5
2ED1
330
18
100
AcDbEntity
  8
1
  6
Continuous
100
AcDbBlockReference
  2
SYO001
 10
2500.0
 20
750.0
 30
0.0
 41
50.0
 42
50.0
 43
50.0
  0
TEXT
  5
2ED2
330
18
100
AcDbEntity
  8
1
  6
Continuous
100
AcDbText
 10
2494.166666666666
 20
737.5
 30
0.0
 40
25.0
  1
L
 41
0.7
  7
M7
 72
     1
 11
2500.0
 21
750.0
 31
0.0
100
AcDbText
 73
     2
  0
TEXT
  5
2ED5
330
18
100
AcDbEntity
  8
1
  6
Continuous
100
AcDbText
 10
3247.166666666666
 20
762.5
 30
0.0
 40
25.0
  1
ELCB2P 1E 50AF 20AT
 41
0.7
  7
M7
 72
     1
 11
3400.0
 21
775.0
 31
0.0
100
AcDbText
 73
     2
  0
TEXT
  5
2ED6
330
18
100
AcDbEntity
  8
1
  6
Continuous
100
AcDbText
 10
3262.333333333333
 20
712.5
 30
0.0
 40
25.0
  1
感度電流 30mA(BV-C1)
 41
0.7
  7
M7
 72
     1
 11
3400.0
 21
725.0
 31
0.0
100
AcDbText
 73
     2
  0
LWPOLYLINE
  5
2ED7
330
18
100
AcDbEntity
  8
KUROMARU
  6
Continuous
100
AcDbPolyline
 90
        2
 70
     1
 43
5.0
 10
1947.5
 20
675.0
 42
0.9999999999999996
 10
1952.5
 20
675.0
 42
0.9999999999999998
  0
LINE
  5
2ED8
330
18
100
AcDbEntity
  8
1
  6
Continuous
100
AcDbLine
 10
1950.0
 20
625.0
 30
0.0
 11
1975.0
 21
625.0
 31
0.0
  0
LINE
  5
2ED9
330
18
100
AcDbEntity
  8
1
  6
Continuous
100
AcDbLine
 10
400.0
 20
700.0
 30
0.0
 11
1550.0
 21
700.0
 31
0.0
  0
TEXT
  5
2EDA
330
18
100
AcDbEntity
  8
1
  6
Continuous
100
AcDbText
 10
447.1666666666666
 20
662.5
 30
0.0
 40
25.0
  1
ELCB2P 1E 50AF 20AT
 41
0.7
  7
M7
 72
     1
 11
600.0
 21
675.0
 31
0.0
100
AcDbText
 73
     2
  0
TEXT
  5
2EDB
330
18
100
AcDbEntity
  8
1
  6
Continuous
100
AcDbText
 10
462.3333333333333
 20
612.5
 30
0.0
 40
25.0
  1
感度電流 30mA(BV-C1)
 41
0.7
  7
M7
 72
     1
 11
600.0
 21
625.0
 31
0.0
100
AcDbText
 73
     2
  0
LINE
  5
2EDE
330
18
100
AcDbEntity
  8
1
  6
DOT
100
AcDbLine
 10
1600.0
 20
675.0
 30
0.0
 11
1750.0
 21
675.0
 31
0.0
  0
LINE
  5
2EDF
330
18
100
AcDbEntity
  8
1
  6
DOT
100
AcDbLine
 10
1600.0
 20
625.0
 30
0.0
 11
1750.0
 21
625.0
 31
0.0
  0
TEXT
  5
2EE0
330
18
100
AcDbEntity
  8
1
  6
Continuous
100
AcDbText
 10
1376.666666666666
 20
637.5
 30
0.0
 40
25.0
  1
100
 41
0.7
  7
M7
 72
     1
 11
1400.0
 21
650.0
 31
0.0
100
AcDbText
 73
     2
  0
INSERT
  5
2EE1
330
18
100
AcDbEntity
  8
1
  6
Continuous
100
AcDbBlockReference
  2
SYO001
 10
1500.0
 20
650.0
 30
0.0
 41
50.0
 42
50.0
 43
50.0
  0
TEXT
  5
2EE2
330
18
100
AcDbEntity
  8
1
  6
Continuous
100
AcDbText
 10
1494.166666666666
 20
637.5
 30
0.0
 40
25.0
  1
M
 41
0.7
  7
M7
 72
     1
 11
1500.0
 21
650.0
 31
0.0
100
AcDbText
 73
     2
  0
INSERT
  5
2EE3
330
18
100
AcDbEntity
  8
1
  6
Continuous
100
AcDbBlockReference
  2
UJEB6
 10
1950.0
 20
675.0
 30
0.0
  0
LINE
  5
2EE4
330
18
100
AcDbEntity
  8
1
  6
Continuous
100
AcDbLine
 10
2450.0
 20
700.0
 30
0.0
 11
3600.0
 21
700.0
 31
0.0
  0
TEXT
  5
2EE5
330
18
100
AcDbEntity
  8
1
  6
Continuous
100
AcDbText
 10
2576.666666666666
 20
637.5
 30
0.0
 40
25.0
  1
100
 41
0.7
  7
M7
 72
     1
 11
2600.0
 21
650.0
 31
0.0
100
AcDbText
 73
     2
  0
LINE
  5
2EE6
330
18
100
AcDbEntity
  8
1
  6
DOT
100
AcDbLine
 10
2250.0
 20
675.0
 30
0.0
 11
2400.0
 21
675.0
 31
0.0
  0
LINE
  5
2EE7
330
18
100
AcDbEntity
  8
1
  6
DOT
100
AcDbLine
 10
2250.0
 20
625.0
 30
0.0
 11
2400.0
 21
625.0
 31
0.0
  0
INSERT
  5
2EE8
330
18
100
AcDbEntity
  8
1
  6
Continuous
100
AcDbBlockReference
  2
UJEB10
 10
2050.0
 20
675.0
 30
0.0
  0
LINE
  5
2EE9
330
18
100
AcDbEntity
  8
1
  6
Continuous
100
AcDbLine
 10
2025.0
 20
675.0
 30
0.0
 11
2050.0
 21
675.0
 31
0.0
  0
LINE
  5
2EEA
330
18
100
AcDbEntity
  8
1
  6
Continuous
100
AcDbLine
 10
1975.0
 20
625.0
 30
0.0
 11
2025.0
 21
675.0
 31
0.0
  0
LWPOLYLINE
  5
2EEB
330
18
100
AcDbEntity
  8
KUROMARU
  6
Continuous
100
AcDbPolyline
 90
        2
 70
     1
 43
5.0
 10
1997.5
 20
650.0
 42
0.9999999999999996
 10
2002.5
 20
650.0
 42
0.9999999999999998
  0
LWPOLYLINE
  5
2EEC
330
18
100
AcDbEntity
  8
KUROMARU
  6
Continuous
100
AcDbPolyline
 90
        2
 70
     1
 43
5.0
 10
2047.5
 20
625.0
 42
0.9999999999999996
 10
2052.5
 20
625.0
 42
0.9999999999999998
  0
INSERT
  5
2EED
330
18
100
AcDbEntity
  8
1
  6
Continuous
100
AcDbBlockReference
  2
SYO001
 10
2500.0
 20
650.0
 30
0.0
 41
50.0
 42
50.0
 43
50.0
  0
TEXT
  5
2EEE
330
18
100
AcDbEntity
  8
1
  6
Continuous
100
AcDbText
 10
2494.166666666666
 20
637.5
 30
0.0
 40
25.0
  1
N
 41
0.7
  7
M7
 72
     1
 11
2500.0
 21
650.0
 31
0.0
100
AcDbText
 73
     2
  0
TEXT
  5
2EF1
330
18
100
AcDbEntity
  8
1
  6
Continuous
100
AcDbText
 10
3247.166666666666
 20
662.5
 30
0.0
 40
25.0
  1
ELCB2P 1E 50AF 20AT
 41
0.7
  7
M7
 72
     1
 11
3400.0
 21
675.0
 31
0.0
100
AcDbText
 73
     2
  0
TEXT
  5
2EF2
330
18
100
AcDbEntity
  8
1
  6
Continuous
100
AcDbText
 10
3262.333333333333
 20
612.5
 30
0.0
 40
25.0
  1
感度電流 30mA(BV-C1)
 41
0.7
  7
M7
 72
     1
 11
3400.0
 21
625.0
 31
0.0
100
AcDbText
 73
     2
  0
LINE
  5
2EF5
330
18
100
AcDbEntity
  8
1
  6
Continuous
100
AcDbLine
 10
400.0
 20
600.0
 30
0.0
 11
1550.0
 21
600.0
 31
0.0
  0
LINE
  5
2F00
330
18
100
AcDbEntity
  8
1
  6
Continuous
100
AcDbLine
 10
2450.0
 20
600.0
 30
0.0
 11
3600.0
 21
600.0
 31
0.0
  0
TEXT
  5
2FA4
330
18
100
AcDbEntity
  8
1
  6
Continuous
100
AcDbText
 10
1260.833333291189
 20
937.5
 30
0.0
 40
25.0
  1
1000
 41
0.7
  7
M7
 72
     2
 11
1324.999999957856
 21
950.0
 31
0.0
100
AcDbText
 73
     2
  0
TEXT
  5
2FA6
330
18
100
AcDbEntity
  8
1
  6
Continuous
100
AcDbText
 10
1260.833333249046
 20
837.5
 30
0.0
 40
25.0
  1
1000
 41
0.7
  7
M7
 72
     2
 11
1324.999999915712
 21
850.0
 31
0.0
100
AcDbText
 73
     2
  0
TEXT
  5
2FB0
330
18
100
AcDbEntity
  8
1
  6
Continuous
100
AcDbText
 10
2710.833333431168
 20
937.5
 30
0.0
 40
25.0
  1
1000
 41
0.7
  7
M7
 72
     2
 11
2775.000000097834
 21
950.0
 31
0.0
100
AcDbText
 73
     2
  0
TEXT
  5
3012
330
18
100
AcDbEntity
  8
1
  6
Continuous
100
AcDbText
 10
920.0833333333333
 20
1237.5
 30
0.0
 40
25.0
  1
放送室コンセント
 41
0.7
  7
M7
 72
     1
 11
1000.0
 21
1250.0
 31
0.0
100
AcDbText
 73
     2
  0
TEXT
  5
3017
330
18
100
AcDbEntity
  8
1
  6
Continuous
100
AcDbText
 10
878.0833331128901
 20
837.5
 30
0.0
 40
25.0
  1
放送室ライティングダクト
 41
0.7
  7
M7
 72
     1
 11
999.9999997795567
 21
850.0
 31
0.0
100
AcDbText
 73
     2
  0
TEXT
  5
301B
330
18
100
AcDbEntity
  8
1
  6
Continuous
100
AcDbText
 10
2728.333333333333
 20
1137.499999999999
 30
0.0
 40
25.0
  1
450
 41
0.7
  7
M7
 72
     2
 11
2775.0
 21
1150.0
 31
0.0
100
AcDbText
 73
     2
  0
TEXT
  5
301D
330
18
100
AcDbEntity
  8
1
  6
Continuous
100
AcDbText
 10
2728.333333333333
 20
1037.5
 30
0.0
 40
25.0
  1
200
 41
0.7
  7
M7
 72
     2
 11
2775.0
 21
1050.0
 31
0.0
100
AcDbText
 73
     2
  0
TEXT
  5
3021
330
18
100
AcDbEntity
  8
1
  6
Continuous
100
AcDbText
 10
2950.83333351074
 20
737.5
 30
0.0
 40
25.0
  1
排気ファン
 41
0.7
  7
M7
 72
     1
 11
3000.000000177406
 21
750.0
 31
0.0
100
AcDbText
 73
     2
  0
LWPOLYLINE
  5
305F
330
18
100
AcDbEntity
  8
KUROMARU
  6
Continuous
100
AcDbPolyline
 90
        2
 70
     1
 43
5.0
 10
1947.5
 20
1375.0
 42
0.9999999999999996
 10
1952.5
 20
1375.0
 42
0.9999999999999998
  0
LINE
  5
3060
330
18
100
AcDbEntity
  8
1
  6
Continuous
100
AcDbLine
 10
1950.0
 20
1325.0
 30
0.0
 11
1975.0
 21
1325.0
 31
0.0
  0
LINE
  5
3061
330
18
100
AcDbEntity
  8
1
  6
Continuous
100
AcDbLine
 10
400.0
 20
1400.0
 30
0.0
 11
1550.0
 21
1400.0
 31
0.0
  0
TEXT
  5
3062
330
18
100
AcDbEntity
  8
1
  6
Continuous
100
AcDbText
 10
462.3333333333333
 20
1312.5
 30
0.0
 40
25.0
  1
感度電流 30mA(BV-C1)
 41
0.7
  7
M7
 72
     1
 11
600.0
 21
1325.0
 31
0.0
100
AcDbText
 73
     2
  0
TEXT
  5
3063
330
18
100
AcDbEntity
  8
1
  6
Continuous
100
AcDbText
 10
447.1666666666666
 20
1362.5
 30
0.0
 40
25.0
  1
ELCB2P 1E 50AF 20AT
 41
0.7
  7
M7
 72
     1
 11
600.0
 21
1375.0
 31
0.0
100
AcDbText
 73
     2
  0
TEXT
  5
3064
330
18
100
AcDbEntity
  8
1
  6
Continuous
100
AcDbText
 10
1278.333333333333
 20
1337.5
 30
0.0
 40
25.0
  1
660
 41
0.7
  7
M7
 72
     2
 11
1325.0
 21
1350.0
 31
0.0
100
AcDbText
 73
     2
  0
TEXT
  5
3065
330
18
100
AcDbEntity
  8
1
  6
Continuous
100
AcDbText
 10
950.4166666666666
 20
1337.5
 30
0.0
 40
25.0
  1
放送室照明
 41
0.7
  7
M7
 72
     1
 11
1000.0
 21
1350.0
 31
0.0
100
AcDbText
 73
     2
  0
LINE
  5
3066
330
18
100
AcDbEntity
  8
1
  6
DOT
100
AcDbLine
 10
1600.0
 20
1325.0
 30
0.0
 11
1750.0
 21
1325.0
 31
0.0
  0
LINE
  5
3067
330
18
100
AcDbEntity
  8
1
  6
DOT
100
AcDbLine
 10
1600.0
 20
1375.0
 30
0.0
 11
1750.0
 21
1375.0
 31
0.0
  0
TEXT
  5
3068
330
18
100
AcDbEntity
  8
1
  6
Continuous
100
AcDbText
 10
1376.666666666666
 20
1337.5
 30
0.0
 40
25.0
  1
100
 41
0.7
  7
M7
 72
     1
 11
1400.0
 21
1350.0
 31
0.0
100
AcDbText
 73
     2
  0
TEXT
  5
3069
330
18
100
AcDbEntity
  8
1
  6
Continuous
100
AcDbText
 10
1495.625
 20
1337.5
 30
0.0
 40
25.0
  1
1
 41
0.7
  7
M7
 72
     1
 11
1500.0
 21
1350.0
 31
0.0
100
AcDbText
 73
     2
  0
INSERT
  5
306A
330
18
100
AcDbEntity
  8
1
  6
Continuous
100
AcDbBlockReference
  2
SYO001
 10
1500.0
 20
1350.0
 30
0.0
 41
50.0
 42
50.0
 43
50.0
  0
LINE
  5
306B
330
18
100
AcDbEntity
  8
1
  6
Continuous
100
AcDbLine
 10
2450.0
 20
1400.0
 30
0.0
 11
3600.0
 21
1400.0
 31
0.0
  0
TEXT
  5
306C
330
18
100
AcDbEntity
  8
1
  6
Continuous
100
AcDbText
 10
2576.666666666666
 20
1337.5
 30
0.0
 40
25.0
  1
100
 41
0.7
  7
M7
 72
     1
 11
2600.0
 21
1350.0
 31
0.0
100
AcDbText
 73
     2
  0
LWPOLYLINE
  5
306D
330
18
100
AcDbEntity
  8
KUROMARU
  6
Continuous
100
AcDbPolyline
 90
        2
 70
     1
 43
5.0
 10
2047.5
 20
1325.0
 42
0.9999999999999996
 10
2052.5
 20
1325.0
 42
0.9999999999999998
  0
LINE
  5
306E
330
18
100
AcDbEntity
  8
1
  6
DOT
100
AcDbLine
 10
2250.0
 20
1375.0
 30
0.0
 11
2400.0
 21
1375.0
 31
0.0
  0
LINE
  5
306F
330
18
100
AcDbEntity
  8
1
  6
DOT
100
AcDbLine
 10
2250.0
 20
1325.0
 30
0.0
 11
2400.0
 21
1325.0
 31
0.0
  0
LINE
  5
3070
330
18
100
AcDbEntity
  8
1
  6
Continuous
100
AcDbLine
 10
2025.0
 20
1375.0
 30
0.0
 11
2050.0
 21
1375.0
 31
0.0
  0
LINE
  5
3071
330
18
100
AcDbEntity
  8
1
  6
Continuous
100
AcDbLine
 10
1975.0
 20
1325.0
 30
0.0
 11
2025.0
 21
1375.0
 31
0.0
  0
LWPOLYLINE
  5
3072
330
18
100
AcDbEntity
  8
KUROMARU
  6
Continuous
100
AcDbPolyline
 90
        2
 70
     1
 43
5.0
 10
1997.5
 20
1350.0
 42
0.9999999999999996
 10
2002.5
 20
1350.0
 42
0.9999999999999998
  0
INSERT
  5
3073
330
18
100
AcDbEntity
  8
1
  6
Continuous
100
AcDbBlockReference
  2
SYO001
 10
2500.0
 20
1350.0
 30
0.0
 41
50.0
 42
50.0
 43
50.0
  0
TEXT
  5
3074
330
18
100
AcDbEntity
  8
1
  6
Continuous
100
AcDbText
 10
2494.166666666666
 20
1337.5
 30
0.0
 40
25.0
  1
2
 41
0.7
  7
M7
 72
     1
 11
2500.0
 21
1350.0
 31
0.0
100
AcDbText
 73
     2
  0
TEXT
  5
3077
330
18
100
AcDbEntity
  8
1
  6
Continuous
100
AcDbText
 10
3262.333333333333
 20
1312.5
 30
0.0
 40
25.0
  1
感度電流 30mA(BV-C1)
 41
0.7
  7
M7
 72
     1
 11
3400.0
 21
1325.0
 31
0.0
100
AcDbText
 73
     2
  0
TEXT
  5
3078
330
18
100
AcDbEntity
  8
1
  6
Continuous
100
AcDbText
 10
3247.166666666666
 20
1362.5
 30
0.0
 40
25.0
  1
ELCB2P 1E 50AF 20AT
 41
0.7
  7
M7
 72
     1
 11
3400.0
 21
1375.0
 31
0.0
100
AcDbText
 73
     2
  0
INSERT
  5
3079
330
18
100
AcDbEntity
  8
1
  6
Continuous
100
AcDbBlockReference
  2
UJEB6
 10
1950.0
 20
1375.0
 30
0.0
  0
INSERT
  5
307A
330
18
100
AcDbEntity
  8
1
  6
Continuous
100
AcDbBlockReference
  2
UJEB10
 10
2050.0
 20
1375.0
 30
0.0
  0
TEXT
  5
30B5
330
18
100
AcDbEntity
  8
1
  6
Continuous
100
AcDbText
 10
1278.333333128636
 20
637.5
 30
0.0
 40
25.0
  1
300
 41
0.7
  7
M7
 72
     2
 11
1324.999999795302
 21
650.0
 31
0.0
100
AcDbText
 73
     2
  0
TEXT
  5
30B8
330
18
100
AcDbEntity
  8
1
  6
Continuous
100
AcDbText
 10
2728.333333668766
 20
737.4999993986075
 30
0.0
 40
25.0
  1
100
 41
0.7
  7
M7
 72
     2
 11
2775.000000335432
 21
749.9999993986075
 31
0.0
100
AcDbText
 73
     2
  0
TEXT
  5
30B9
330
18
100
AcDbEntity
  8
1
  6
Continuous
100
AcDbText
 10
2728.3333337666
 20
637.4999993986075
 30
0.0
 40
25.0
  1
300
 41
0.7
  7
M7
 72
     2
 11
2775.000000433267
 21
649.9999993986075
 31
0.0
100
AcDbText
 73
     2
  0
TEXT
  5
30BC
330
18
100
AcDbEntity
  8
1
  6
Continuous
100
AcDbText
 10
981.3333334055791
 20
1437.499998928792
 30
0.0
 40
25.0
  1
予備
 41
0.7
  7
M7
 72
     1
 11
1000.000000072245
 21
1449.999998928792
 31
0.0
100
AcDbText
 73
     2
  0
TEXT
  5
30BE
330
18
100
AcDbEntity
  8
1
  6
Continuous
100
AcDbText
 10
920.0833332821588
 20
1137.499999999999
 30
0.0
 40
25.0
  1
放送室コンセント
 41
0.7
  7
M7
 72
     1
 11
999.9999999488254
 21
1150.0
 31
0.0
100
AcDbText
 73
     2
  0
TEXT
  5
30BF
330
18
100
AcDbEntity
  8
1
  6
Continuous
100
AcDbText
 10
920.0833332309843
 20
1037.5
 30
0.0
 40
25.0
  1
放送室コンセント
 41
0.7
  7
M7
 72
     1
 11
999.9999998976509
 21
1050.0
 31
0.0
100
AcDbText
 73
     2
  0
TEXT
  5
30C0
330
18
100
AcDbEntity
  8
1
  6
Continuous
100
AcDbText
 10
920.0833331798103
 20
937.5
 30
0.0
 40
25.0
  1
放送室コンセント
 41
0.7
  7
M7
 72
     1
 11
999.9999998464769
 21
950.0
 31
0.0
100
AcDbText
 73
     2
  0
TEXT
  5
30C2
330
18
100
AcDbEntity
  8
1
  6
Continuous
100
AcDbText
 10
878.0833330617156
 20
737.5
 30
0.0
 40
25.0
  1
放送室ライティングダクト
 41
0.7
  7
M7
 72
     1
 11
999.999999728382
 21
750.0
 31
0.0
100
AcDbText
 73
     2
  0
TEXT
  5
30C3
330
18
100
AcDbEntity
  8
1
  6
Continuous
100
AcDbText
 10
1260.833333197871
 20
737.5
 30
0.0
 40
25.0
  1
1000
 41
0.7
  7
M7
 72
     2
 11
1324.999999864538
 21
750.0
 31
0.0
100
AcDbText
 73
     2
  0
TEXT
  5
30C4
330
18
100
AcDbEntity
  8
1
  6
Continuous
100
AcDbText
 10
920.083333026287
 20
637.5
 30
0.0
 40
25.0
  1
放送室コンセント
 41
0.7
  7
M7
 72
     1
 11
999.9999996929537
 21
650.0
 31
0.0
100
AcDbText
 73
     2
  0
TEXT
  5
30C5
330
18
100
AcDbEntity
  8
1
  6
Continuous
100
AcDbText
 10
2981.333333629538
 20
1337.5
 30
0.0
 40
25.0
  1
予備
 41
0.7
  7
M7
 72
     1
 11
3000.000000296205
 21
1350.0
 31
0.0
100
AcDbText
 73
     2
  0
TEXT
  5
30C7
330
18
100
AcDbEntity
  8
1
  6
Continuous
100
AcDbText
 10
2920.083331191303
 20
1037.5
 30
0.0
 40
25.0
  1
放送室コンセント
 41
0.7
  7
M7
 72
     1
 11
2999.999997857969
 21
1050.0
 31
0.0
100
AcDbText
 73
     2
  0
TEXT
  5
30C8
330
18
100
AcDbEntity
  8
1
  6
Continuous
100
AcDbText
 10
2920.083331242478
 20
1137.499999999999
 30
0.0
 40
25.0
  1
放送室コンセント
 41
0.7
  7
M7
 72
     1
 11
2999.999997909144
 21
1150.0
 31
0.0
100
AcDbText
 73
     2
  0
TEXT
  5
30C9
330
18
100
AcDbEntity
  8
1
  6
Continuous
100
AcDbText
 10
2920.083331293652
 20
1237.5
 30
0.0
 40
25.0
  1
放送室コンセント
 41
0.7
  7
M7
 72
     1
 11
2999.999997960319
 21
1250.0
 31
0.0
100
AcDbText
 73
     2
  0
TEXT
  5
30CA
330
18
100
AcDbEntity
  8
1
  6
Continuous
100
AcDbText
 10
2878.083331634304
 20
937.5
 30
0.0
 40
25.0
  1
放送室ライティングダクト
 41
0.7
  7
M7
 72
     1
 11
2999.999998300971
 21
950.0
 31
0.0
100
AcDbText
 73
     2
  0
TEXT
  5
30CC
330
18
100
AcDbEntity
  8
1
  6
Continuous
100
AcDbText
 10
2878.083331753103
 20
837.5
 30
0.0
 40
25.0
  1
放送室ライティングダクト
 41
0.7
  7
M7
 72
     1
 11
2999.99999841977
 21
850.0
 31
0.0
100
AcDbText
 73
     2
  0
TEXT
  5
30CD
330
18
100
AcDbEntity
  8
1
  6
Continuous
100
AcDbText
 10
2710.833333549967
 20
837.5
 30
0.0
 40
25.0
  1
1000
 41
0.7
  7
M7
 72
     2
 11
2775.000000216633
 21
850.0
 31
0.0
100
AcDbText
 73
     2
  0
TEXT
  5
30CE
330
18
100
AcDbEntity
  8
1
  6
Continuous
100
AcDbText
 10
2920.083331666499
 20
637.5
 30
0.0
 40
25.0
  1
放送室コンセント
 41
0.7
  7
M7
 72
     1
 11
2999.999998333166
 21
650.0
 31
0.0
100
AcDbText
 73
     2
  0
LWPOLYLINE
  5
3509
330
18
100
AcDbEntity
  8
1
  6
Continuous
100
AcDbPolyline
 90
        4
 70
     0
 43
0.0
 10
2590.0
 20
1800.0
 10
2450.0
 20
1800.0
 10
2450.0
 20
2075.0
 10
2450.0
 20
2075.0
  0
LINE
  5
350C
330
18
100
AcDbEntity
  8
1
  6
Continuous
100
AcDbLine
 10
2600.0
 20
1950.0
 30
0.0
 11
2500.0
 21
1950.0
 31
0.0
  0
LWPOLYLINE
  5
351D
330
18
100
AcDbEntity
  8
1
  6
Continuous
100
AcDbPolyline
 90
        4
 70
     0
 43
0.0
 10
2660.0
 20
1800.0
 10
2700.0
 20
1800.0
 10
2700.0
 20
2075.0
 10
2700.0
 20
2075.0
  0
LWPOLYLINE
  5
351E
330
18
100
AcDbEntity
  8
1
  6
Continuous
100
AcDbPolyline
 90
        2
 70
     0
 43
0.0
 10
2640.0
 20
1800.0
 10
2610.0
 20
1800.0
  0
TEXT
  5
351F
330
18
100
AcDbEntity
  8
1
  6
Continuous
100
AcDbText
 10
2610.416666666666
 20
1812.5
 30
0.0
 40
25.0
  1
PE
 41
0.7
  7
M7
 72
     1
 11
2625.0
 21
1825.0
 31
0.0
100
AcDbText
 73
     2
  0
LINE
  5
3522
330
18
100
AcDbEntity
  8
1
  6
Continuous
100
AcDbLine
 10
2575.0
 20
1825.0
 30
0.0
 11
2575.0
 21
1840.0
 31
0.0
  0
INSERT
  5
3523
330
18
100
AcDbEntity
  8
1
  6
Continuous
100
AcDbBlockReference
  2
AN07
 10
2575.0
 20
1825.0
 30
0.0
 41
0.5
 42
0.5
 43
0.5
  0
INSERT
  5
3524
330
18
100
AcDbEntity
  8
1
  6
Continuous
100
AcDbBlockReference
  2
AM03
 10
2600.0
 20
1800.0
 30
0.0
  0
LINE
  5
3525
330
18
100
AcDbEntity
  8
1
  6
Continuous
100
AcDbLine
 10
2650.0
 20
1875.0
 30
0.0
 11
2650.0
 21
1810.0
 31
0.0
  0
INSERT
  5
3526
330
18
100
AcDbEntity
  8
1
  6
Continuous
100
AcDbBlockReference
  2
TB-ED
 10
2650.0
 20
1800.0
 30
0.0
  0
LINE
  5
3544
330
18
100
AcDbEntity
  8
1
  6
Continuous
100
AcDbLine
 10
2500.0
 20
2092.5
 30
0.0
 11
2500.0
 21
2090.0
 31
0.0
  0
LINE
  5
3546
330
18
100
AcDbEntity
  8
1
  6
Continuous
100
AcDbLine
 10
2600.0
 20
2099.999999999999
 30
0.0
 11
2600.0
 21
2090.0
 31
0.0
  0
LINE
  5
3548
330
18
100
AcDbEntity
  8
1
  6
Continuous
100
AcDbLine
 10
1950.0
 20
2425.0
 30
0.0
 11
1975.0
 21
2525.0
 31
0.0
  0
LINE
  5
3549
330
18
100
AcDbEntity
  8
1
  6
Continuous
100
AcDbLine
 10
1975.0
 20
2525.0
 30
0.0
 11
2500.0
 21
2525.0
 31
0.0
  0
LINE
  5
354A
330
18
100
AcDbEntity
  8
1
  6
Continuous
100
AcDbLine
 10
2500.0
 20
2525.0
 30
0.0
 11
2500.0
 21
2425.0
 31
0.0
  0
LINE
  5
354B
330
18
100
AcDbEntity
  8
1
  6
Continuous
100
AcDbLine
 10
2000.0
 20
2425.0
 30
0.0
 11
2025.0
 21
2500.0
 31
0.0
  0
LINE
  5
354C
330
18
100
AcDbEntity
  8
1
  6
Continuous
100
AcDbLine
 10
2025.0
 20
2500.0
 30
0.0
 11
2550.0
 21
2500.0
 31
0.0
  0
LINE
  5
354D
330
18
100
AcDbEntity
  8
1
  6
Continuous
100
AcDbLine
 10
2550.0
 20
2500.0
 30
0.0
 11
2550.0
 21
2425.0
 31
0.0
  0
LINE
  5
354E
330
18
100
AcDbEntity
  8
1
  6
Continuous
100
AcDbLine
 10
2050.0
 20
2425.0
 30
0.0
 11
2075.0
 21
2475.0
 31
0.0
  0
LINE
  5
354F
330
18
100
AcDbEntity
  8
1
  6
Continuous
100
AcDbLine
 10
2075.0
 20
2475.0
 30
0.0
 11
2600.0
 21
2475.0
 31
0.0
  0
LINE
  5
3550
330
18
100
AcDbEntity
  8
1
  6
Continuous
100
AcDbLine
 10
2600.0
 20
2475.0
 30
0.0
 11
2600.0
 21
2425.0
 31
0.0
  0
LINE
  5
3551
330
18
100
AcDbEntity
  8
KYU-JIS
  6
ByBlock
100
AcDbLine
 10
2675.000001
 20
2324.999999
 30
0.0
 11
2774.999999
 21
2324.999999
 31
0.0
  0
LINE
  5
3552
330
18
100
AcDbEntity
  8
KYU-JIS
  6
ByBlock
100
AcDbLine
 10
2650.000001
 20
2275.0
 30
0.0
 11
2650.000001
 21
2225.0
 31
0.0
  0
LINE
  5
3553
330
18
100
AcDbEntity
  8
KYU-JIS
  6
ByBlock
100
AcDbLine
 10
2650.000001
 20
2424.999998
 30
0.0
 11
2650.000001
 21
2374.999998000001
 31
0.0
  0
CIRCLE
  5
3554
330
18
100
AcDbEntity
  8
KYU-JIS
  6
ByBlock
100
AcDbCircle
 10
2650.000001
 20
2283.00003
 30
0.0
 40
8.0
  0
CIRCLE
  5
3555
330
18
100
AcDbEntity
  8
KYU-JIS
  6
ByBlock
100
AcDbCircle
 10
2650.000001
 20
2366.999968
 30
0.0
 40
8.0
  0
ARC
  5
3556
330
18
100
AcDbEntity
  8
KYU-JIS
  6
ByBlock
100
AcDbCircle
 10
2614.166680999999
 20
2324.999999
 30
0.0
 40
60.83331999999999
100
AcDbArc
 50
321.8412169999944
 51
38.1587980000034
  0
LINE
  5
3557
330
18
100
AcDbEntity
  8
KYU-JIS
  6
ByBlock
100
AcDbLine
 10
2700.0
 20
2275.0
 30
0.0
 11
2700.0
 21
2225.0
 31
0.0
  0
LINE
  5
3558
330
18
100
AcDbEntity
  8
KYU-JIS
  6
ByBlock
100
AcDbLine
 10
2700.0
 20
2424.999998
 30
0.0
 11
2700.0
 21
2374.999998000001
 31
0.0
  0
CIRCLE
  5
3559
330
18
100
AcDbEntity
  8
KYU-JIS
  6
ByBlock
100
AcDbCircle
 10
2700.0
 20
2283.00003
 30
0.0
 40
8.0
  0
CIRCLE
  5
355A
330
18
100
AcDbEntity
  8
KYU-JIS
  6
ByBlock
100
AcDbCircle
 10
2700.0
 20
2366.999968
 30
0.0
 40
8.0
  0
ARC
  5
355B
330
18
100
AcDbEntity
  8
KYU-JIS
  6
ByBlock
100
AcDbCircle
 10
2664.16668
 20
2324.999999
 30
0.0
 40
60.83331999999999
100
AcDbArc
 50
321.8412169999944
 51
38.1587980000034
  0
LINE
  5
355C
330
18
100
AcDbEntity
  8
KYU-JIS
  6
ByBlock
100
AcDbLine
 10
2750.0
 20
2275.0
 30
0.0
 11
2750.0
 21
2225.0
 31
0.0
  0
LINE
  5
355D
330
18
100
AcDbEntity
  8
KYU-JIS
  6
ByBlock
100
AcDbLine
 10
2750.0
 20
2424.999998
 30
0.0
 11
2750.0
 21
2374.999998000001
 31
0.0
  0
CIRCLE
  5
355E
330
18
100
AcDbEntity
  8
KYU-JIS
  6
ByBlock
100
AcDbCircle
 10
2750.0
 20
2283.00003
 30
0.0
 40
8.0
  0
CIRCLE
  5
355F
330
18
100
AcDbEntity
  8
KYU-JIS
  6
ByBlock
100
AcDbCircle
 10
2750.0
 20
2366.999968
 30
0.0
 40
8.0
  0
ARC
  5
3560
330
18
100
AcDbEntity
  8
KYU-JIS
  6
ByBlock
100
AcDbCircle
 10
2714.166678999999
 20
2324.999999
 30
0.0
 40
60.83331999999999
100
AcDbArc
 50
321.8412169999944
 51
38.1587980000034
  0
LINE
  5
3561
330
18
100
AcDbEntity
  8
SIN-JIS
  6
HIDDEN
100
AcDbLine
 10
2484.375001
 20
2344.999999
 30
0.0
 11
2584.375
 21
2344.999999
 31
0.0
  0
LINE
  5
3562
330
18
100
AcDbEntity
  8
SIN-JIS
  6
ByBlock
100
AcDbLine
 10
2592.000122
 20
2373.000029
 30
0.0
 11
2607.999877
 21
2356.999968
 31
0.0
  0
LINE
  5
3563
330
18
100
AcDbEntity
  8
SIN-JIS
  6
ByBlock
100
AcDbLine
 10
2592.000122
 20
2356.999968
 30
0.0
 11
2607.999877
 21
2373.000029
 31
0.0
  0
LINE
  5
3564
330
18
100
AcDbEntity
  8
SIN-JIS
  6
ByBlock
100
AcDbLine
 10
2575.0
 20
2374.999998000001
 30
0.0
 11
2600.0
 21
2294.999999
 31
0.0
  0
LINE
  5
3565
330
18
100
AcDbEntity
  8
SIN-JIS
  6
ByBlock
100
AcDbLine
 10
2600.0
 20
2294.999999
 30
0.0
 11
2600.0
 21
2100.0
 31
0.0
  0
LINE
  5
3566
330
18
100
AcDbEntity
  8
SIN-JIS
  6
ByBlock
100
AcDbLine
 10
2600.0
 20
2424.999998
 30
0.0
 11
2600.0
 21
2364.999998
 31
0.0
  0
LINE
  5
3567
330
18
100
AcDbEntity
  8
SIN-JIS
  6
ByBlock
100
AcDbLine
 10
2542.000122
 20
2373.000029
 30
0.0
 11
2557.999877999999
 21
2356.999968
 31
0.0
  0
LINE
  5
3568
330
18
100
AcDbEntity
  8
SIN-JIS
  6
ByBlock
100
AcDbLine
 10
2542.000122
 20
2356.999968
 30
0.0
 11
2557.999877999999
 21
2373.000029
 31
0.0
  0
LINE
  5
3569
330
18
100
AcDbEntity
  8
SIN-JIS
  6
ByBlock
100
AcDbLine
 10
2525.000001
 20
2374.999998000001
 30
0.0
 11
2550.0
 21
2294.999999
 31
0.0
  0
LINE
  5
356B
330
18
100
AcDbEntity
  8
SIN-JIS
  6
ByBlock
100
AcDbLine
 10
2550.0
 20
2424.999998
 30
0.0
 11
2550.0
 21
2364.999998
 31
0.0
  0
LINE
  5
356C
330
18
100
AcDbEntity
  8
SIN-JIS
  6
ByBlock
100
AcDbLine
 10
2492.000122999999
 20
2373.000029
 30
0.0
 11
2507.999879
 21
2356.999968
 31
0.0
  0
LINE
  5
356D
330
18
100
AcDbEntity
  8
SIN-JIS
  6
ByBlock
100
AcDbLine
 10
2492.000122999999
 20
2356.999968
 30
0.0
 11
2507.999879
 21
2373.000029
 31
0.0
  0
LINE
  5
356E
330
18
100
AcDbEntity
  8
SIN-JIS
  6
ByBlock
100
AcDbLine
 10
2475.000001
 20
2374.999998000001
 30
0.0
 11
2500.000001
 21
2294.999999
 31
0.0
  0
LINE
  5
356F
330
18
100
AcDbEntity
  8
SIN-JIS
  6
ByBlock
100
AcDbLine
 10
2500.000001
 20
2294.999999
 30
0.0
 11
2500.000001
 21
2092.5
 31
0.0
  0
LINE
  5
3570
330
18
100
AcDbEntity
  8
SIN-JIS
  6
ByBlock
100
AcDbLine
 10
2500.000001
 20
2424.999998
 30
0.0
 11
2500.000001
 21
2364.999998
 31
0.0
  0
POINT
  5
3576
330
18
100
AcDbEntity
  8
TEN
100
AcDbPoint
 10
2799.999999
 20
2344.999999
 30
0.0
  0
POINT
  5
3577
330
18
100
AcDbEntity
  8
TEN
100
AcDbPoint
 10
2919.999996999999
 20
2344.999999000001
 30
0.0
  0
POINT
  5
3578
330
18
100
AcDbEntity
  8
TEN
100
AcDbPoint
 10
2799.999999
 20
2304.999999
 30
0.0
  0
POINT
  5
3579
330
18
100
AcDbEntity
  8
TEN
100
AcDbPoint
 10
2919.999998
 20
2304.999991036937
 30
0.0
  0
POINT
  5
357A
330
18
100
AcDbEntity
  8
TEN
100
AcDbPoint
 10
2799.999999
 20
2265.0
 30
0.0
  0
LINE
  5
357B
330
18
100
AcDbEntity
  8
1
  6
Continuous
100
AcDbLine
 10
2450.0
 20
2075.0
 30
0.0
 11
2450.0
 21
2075.0
 31
0.0
  0
LINE
  5
357C
330
18
100
AcDbEntity
  8
1
  6
Continuous
100
AcDbLine
 10
2450.0
 20
2075.0
 30
0.0
 11
2700.0
 21
2075.0
 31
0.0
  0
LINE
  5
357D
330
18
100
AcDbEntity
  8
1
  6
Continuous
100
AcDbLine
 10
2700.0
 20
2075.0
 30
0.0
 11
2700.0
 21
2075.0
 31
0.0
  0
LINE
  5
3587
330
18
100
AcDbEntity
  8
1
  6
Continuous
 62
     3
100
AcDbLine
 10
3750.0
 20
409.9999981619066
 30
0.0
 11
3742.235428646924
 21
438.9777729505786
 31
0.0
  0
LINE
  5
358A
330
18
100
AcDbEntity
  8
1
  6
Continuous
100
AcDbLine
 10
3750.0
 20
400.0
 30
0.0
 11
3750.0
 21
540.0
 31
0.0
  0
LINE
  5
358B
330
18
100
AcDbEntity
  8
1
  6
Continuous
100
AcDbLine
 10
3700.0
 20
560.0
 30
0.0
 11
3700.0
 21
1600.0
 31
0.0
  0
LINE
  5
358D
330
18
100
AcDbEntity
  8
1
  6
Continuous
100
AcDbLine
 10
3700.0
 20
1600.0
 30
0.0
 11
2600.0
 21
1600.0
 31
0.0
  0
LINE
  5
358E
330
18
100
AcDbEntity
  8
1
  6
Continuous
100
AcDbLine
 10
2600.0
 20
1600.0
 30
0.0
 11
2600.0
 21
1775.0
 31
0.0
  0
LINE
  5
358F
330
18
100
AcDbEntity
  8
1
  6
Continuous
100
AcDbLine
 10
2650.0
 20
1775.0
 30
0.0
 11
2650.0
 21
1675.0
 31
0.0
  0
LINE
  5
3590
330
18
100
AcDbEntity
  8
1
  6
Continuous
100
AcDbLine
 10
2650.0
 20
1675.0
 30
0.0
 11
2950.0
 21
1675.0
 31
0.0
  0
LINE
  5
3591
330
18
100
AcDbEntity
  8
1
  6
Continuous
100
AcDbLine
 10
2900.0
 20
1675.0
 30
0.0
 11
2950.0
 21
1700.0
 31
0.0
  0
TEXT
  5
3592
330
18
100
AcDbEntity
  8
1
  6
Continuous
100
AcDbText
 10
3052.533333333333
 20
1657.499996323813
 30
0.0
 40
40.0
  1
等電位ボンディング
 41
0.7
  7
M7
 72
     1
 11
3200.0
 21
1677.499996323813
 31
0.0
100
AcDbText
 73
     2
  0
LINE
  5
3593
330
18
100
AcDbEntity
  8
1
  6
DASHDOT
100
AcDbLine
 10
2362.5
 20
2600.0
 30
0.0
 11
2362.5
 21
1550.0
 31
0.0
  0
LINE
  5
3594
330
18
100
AcDbEntity
  8
1
  6
DASHDOT
100
AcDbLine
 10
2362.5
 20
1550.0
 30
0.0
 11
3650.0
 21
1550.0
 31
0.0
  0
LINE
  5
3595
330
18
100
AcDbEntity
  8
1
  6
DASHDOT
100
AcDbLine
 10
3650.0
 20
1550.0
 30
0.0
 11
3650.0
 21
300.0
 31
0.0
  0
LINE
  5
3596
330
18
100
AcDbEntity
  8
1
  6
DASHDOT
100
AcDbLine
 10
3650.0
 20
300.0
 30
0.0
 11
3850.0
 21
300.0
 31
0.0
  0
LINE
  5
3598
330
18
100
AcDbEntity
  8
1
  6
DASHDOT
100
AcDbLine
 10
3850.0
 20
637.5
 30
0.0
 11
3850.0
 21
1800.0
 31
0.0
  0
LINE
  5
3599
330
18
100
AcDbEntity
  8
1
  6
DASHDOT
100
AcDbLine
 10
3850.0
 20
1800.0
 30
0.0
 11
3850.0
 21
1800.0
 31
0.0
  0
LINE
  5
359A
330
18
100
AcDbEntity
  8
1
  6
DASHDOT
100
AcDbLine
 10
3850.0
 20
1800.0
 30
0.0
 11
2800.0
 21
1800.0
 31
0.0
  0
LINE
  5
359C
330
18
100
AcDbEntity
  8
1
  6
DASHDOT
100
AcDbLine
 10
2800.0
 20
2600.0
 30
0.0
 11
2362.5
 21
2600.0
 31
0.0
  0
POINT
  5
359D
330
18
100
AcDbEntity
  8
TEN
  6
Continuous
 62
     4
100
AcDbPoint
 10
3782.0
 20
103.0
 30
0.0
  0
POINT
  5
359E
330
18
100
AcDbEntity
  8
TEN
  6
Continuous
 62
     4
100
AcDbPoint
 10
3781.0
 20
215.0
 30
0.0
  0
POINT
  5
359F
330
18
100
AcDbEntity
  8
TEN
  6
Continuous
 62
     4
100
AcDbPoint
 10
4018.0
 20
80.12500000000001
 30
0.0
  0
POINT
  5
35A0
330
18
100
AcDbEntity
  8
TEN
  6
Continuous
 62
     4
100
AcDbPoint
 10
3990.0
 20
124.375
 30
0.0
  0
POINT
  5
35A1
330
18
100
AcDbEntity
  8
TEN
  6
Continuous
 62
     4
100
AcDbPoint
 10
1652.2
 20
187.3999999999999
 30
0.0
  0
POINT
  5
35A2
330
18
100
AcDbEntity
  8
TEN
  6
Continuous
 62
     4
100
AcDbPoint
 10
1710.0
 20
187.1
 30
0.0
  0
POINT
  5
35A3
330
18
100
AcDbEntity
  8
TEN
  6
Continuous
 62
     4
100
AcDbPoint
 10
1767.8
 20
186.8
 30
0.0
  0
LWPOLYLINE
  5
35A4
102
{ACAD_REACTORS
330
3607
102
}
330
18
100
AcDbEntity
  8
WAKU
  6
Continuous
 62
     7
100
AcDbPolyline
 90
       70
 70
     1
 43
0.0
 10
1869.39
 20
108.4624190070459
 10
1868.95046664168
 20
107.893481361466
 10
1868.195926382809
 20
107.118483114415
 10
1867.36244213045
 20
106.4822917315619
 10
1866.466236707499
 20
105.997289954516
 10
1865.524753733089
 20
105.672917791188
 10
1864.55631810239
 20
105.5154887767669
 10
1863.579779313389
 20
105.528067087948
 10
1862.61414458282
 20
105.71040790221
 10
1861.6782088923
 20
106.058962163013
 10
1860.79018916545
 20
106.566945658146
 10
1859.967369696139
 20
107.224471066698
 10
1859.2257657294
 20
108.018740404517
 10
1858.57981174287
 20
108.934294122408
 10
1858.04208049616
 20
109.9533120086809
 10
1857.6230383163
 20
111.055960039295
 10
1857.33084138268
 20
112.220776424578
 10
1857.17117697625
 20
113.425089338548
 10
1857.14715278305
 20
114.6454582002219
 10
1857.259236406689
 20
115.858129917856
 10
1857.50524626691
 20
117.039501215859
 10
1857.88039406164
 20
118.1665780457059
 10
1858.37737796575
 20
119.217423138934
 10
1858.98652475288
 20
120.171582991124
 10
1859.695978073699
 20
121.010485966092
 10
1860.49192922631
 20
121.717803771669
 10
1861.35888592692
 20
122.2797692713309
 10
1862.27997384949
 20
122.6854444458539
 10
1863.23726506533
 20
122.9269332894139
 10
1864.21212698983
 20
122.999535496362
 10
1865.18558504451
 20
122.9018379473209
 10
1866.13869197564
 20
122.635742213956
 10
1867.05289664094
 20
122.2064275470369
 10
1867.9104050865
 20
121.622250068216
 10
1868.694526885819
 20
120.894580127628
 10
1869.39
 20
120.0375809929539
 10
1869.39
 20
124.858811196359
 10
1868.15817603983
 20
125.567524273263
 10
1866.85759997358
 20
126.082591372041
 10
1865.51052501831
 20
126.3951995518289
 10
1864.14
 20
126.5
 10
1862.769474981689
 20
126.3951995518289
 10
1861.422400026419
 20
126.082591372041
 10
1860.121823960169
 20
125.567524273263
 10
1858.89
 20
124.858811196359
 10
1857.74800499541
 20
123.968578418568
 10
1856.71537879754
 20
122.912058069535
 10
1855.80978992694
 20
121.7073275053569
 10
1855.04673326026
 20
120.375
 10
1854.439264908629
 20
118.9378720464719
 10
1853.99777882397
 20
117.4205333025059
 10
1853.72982895558
 20
115.8489458546959
 10
1853.64
 20
114.25
 10
1853.72982895558
 20
112.6510541453049
 10
1853.99777882397
 20
111.0794666974939
 10
1854.439264908629
 20
109.5621279535279
 10
1855.04673326026
 20
108.125
 10
1855.80978992694
 20
106.7926724946429
 10
1856.71537879754
 20
105.587941930465
 10
1857.74800499541
 20
104.5314215814319
 10
1858.89
 20
103.6411888036409
 10
1860.121823960169
 20
102.9324757267369
 10
1861.422400026419
 20
102.4174086279589
 10
1862.769474981689
 20
102.104800448171
 10
1864.14
 20
102.0
 10
1865.51052501831
 20
102.104800448171
 10
1866.85759997358
 20
102.4174086279589
 10
1868.15817603983
 20
102.9324757267369
 10
1869.39
 20
103.6411888036409
 10
1869.39
 20
103.6411888036409
  0
LWPOLYLINE
  5
35A5
102
{ACAD_REACTORS
330
3608
102
}
330
18
100
AcDbEntity
  8
WAKU
  6
Continuous
 62
     7
100
AcDbPolyline
 90
       46
 70
     0
 43
0.0
 10
1932.25
 20
114.25
 10
1932.19890736089
 20
115.4677646334009
 10
1932.04662390368
 20
116.661826863399
 10
1931.79611365262
 20
117.808945626913
 10
1931.45225250482
 20
118.886793562041
 10
1931.02173332638
 20
119.8743915847569
 10
1930.512935683379
 20
120.7525172229269
 10
1929.93576274322
 20
121.504078759857
 10
1929.30144852064
 20
122.114447905118
 10
1928.62233922047
 20
122.571744517583
 10
1927.911652932749
 20
122.8670678388569
 10
1927.18322235769
 20
122.9946697364169
 10
1926.45122556785
 20
122.9520665844719
 10
1925.7299100481
 20
122.740087604915
 10
1925.03331538457
 20
122.3628587274589
 10
1924.375
 20
121.8277222831139
 10
1923.767777254539
 20
121.145094094059
 10
1923.223466048219
 20
120.328260741516
 10
1922.752660779529
 20
119.393120957559
 10
1922.36452513749
 20
118.357876174377
 10
1922.066613740869
 20
117.2426762540999
 10
1921.864725096149
 20
116.0692272946549
 10
1921.762788736139
 20
114.8603691452609
 10
1921.762788736139
 20
113.6396308547389
 10
1921.864725096149
 20
112.430772705345
 10
1922.066613740869
 20
111.2573237458999
 10
1922.36452513749
 20
110.142123825624
 10
1922.752660779529
 20
109.106879042441
 10
1923.223466048219
 20
108.171739258484
 10
1923.767777254539
 20
107.3549059059409
 10
1924.375
 20
106.6722777168859
 10
1925.03331538457
 20
106.137141272541
 10
1925.7299100481
 20
105.7599123950849
 10
1926.45122556785
 20
105.547933415528
 10
1927.18322235769
 20
105.5053302635829
 10
1927.911652932749
 20
105.632932161143
 10
1928.62233922047
 20
105.9282554824169
 10
1929.30144852064
 20
106.385552094882
 10
1929.93576274322
 20
106.995921240143
 10
1930.512935683379
 20
107.747482777073
 10
1931.02173332638
 20
108.625608415243
 10
1931.45225250482
 20
109.6132064379599
 10
1931.79611365262
 20
110.691054373087
 10
1932.04662390368
 20
111.838173136601
 10
1932.19890736089
 20
113.032235366599
 10
1932.25
 20
114.25
  0
LWPOLYLINE
  5
35A6
102
{ACAD_REACTORS
330
3608
102
}
330
18
100
AcDbEntity
  8
WAKU
  6
Continuous
 62
     7
100
AcDbPolyline
 90
       49
 70
     0
 43
0.0
 10
1927.0
 20
126.5
 10
1925.85789581807
 20
126.3951995518289
 10
1924.73533335535
 20
126.082591372041
 10
1923.65151996681
 20
125.567524273263
 10
1922.625
 20
124.858811196359
 10
1921.67333749617
 20
123.968578418568
 10
1920.81281566462
 20
122.912058069535
 10
1920.05815827245
 20
121.7073275053569
 10
1919.42227771689
 20
120.375
 10
1918.91605409053
 20
118.9378720464719
 10
1918.54814901997
 20
117.4205333025059
 10
1918.324857462979
 20
115.8489458546959
 10
1918.25
 20
114.25
 10
1918.324857462979
 20
112.6510541453039
 10
1918.54814901997
 20
111.0794666974939
 10
1918.91605409053
 20
109.5621279535279
 10
1919.42227771689
 20
108.125
 10
1920.05815827245
 20
106.7926724946429
 10
1920.81281566462
 20
105.587941930465
 10
1921.67333749617
 20
104.5314215814319
 10
1922.625
 20
103.6411888036409
 10
1923.65151996681
 20
102.9324757267369
 10
1924.73533335535
 20
102.4174086279589
 10
1925.85789581807
 20
102.104800448171
 10
1927.0
 20
102.0
 10
1928.142104181929
 20
102.104800448171
 10
1929.264666644649
 20
102.4174086279589
 10
1930.34848003319
 20
102.9324757267369
 10
1931.375
 20
103.6411888036409
 10
1932.326662503829
 20
104.5314215814319
 10
1933.18718433538
 20
105.587941930465
 10
1933.94184172755
 20
106.7926724946429
 10
1934.577722283109
 20
108.125
 10
1935.08394590947
 20
109.5621279535279
 10
1935.45185098003
 20
111.0794666974939
 10
1935.67514253702
 20
112.6510541453039
 10
1935.75
 20
114.25
 10
1935.67514253702
 20
115.8489458546959
 10
1935.45185098003
 20
117.4205333025059
 10
1935.08394590947
 20
118.9378720464719
 10
1934.577722283109
 20
120.375
 10
1933.94184172755
 20
121.7073275053569
 10
1933.18718433538
 20
122.912058069535
 10
1932.326662503829
 20
123.968578418568
 10
1931.375
 20
124.858811196359
 10
1930.34848003319
 20
125.567524273263
 10
1929.264666644649
 20
126.082591372041
 10
1928.142104181929
 20
126.3951995518289
 10
1927.0
 20
126.5
  0
LWPOLYLINE
  5
35A7
102
{ACAD_REACTORS
330
3608
102
}
330
18
100
AcDbEntity
  8
WAKU
  6
Continuous
 62
     7
100
AcDbPolyline
 90
       11
 70
     0
 43
0.0
 10
1937.5
 20
102.0
 10
1941.0
 20
102.0
 10
1941.0
 20
119.5
 10
1951.5
 20
102.0
 10
1955.0
 20
102.0
 10
1955.0
 20
126.5
 10
1951.5
 20
126.5
 10
1951.5
 20
109.0
 10
1941.0
 20
126.5
 10
1937.5
 20
126.5
 10
1937.5
 20
102.0
  0
LWPOLYLINE
  5
35A8
102
{ACAD_REACTORS
330
3608
102
}
330
18
100
AcDbEntity
  8
WAKU
  6
Continuous
 62
     7
100
AcDbPolyline
 90
        5
 70
     0
 43
0.0
 10
1913.0
 20
126.5
 10
1913.0
 20
102.0
 10
1916.5
 20
102.0
 10
1916.5
 20
126.5
 10
1913.0
 20
126.5
  0
LWPOLYLINE
  5
35A9
102
{ACAD_REACTORS
330
3608
102
}
330
18
100
AcDbEntity
  8
WAKU
  6
Continuous
 62
     7
100
AcDbPolyline
 90
        7
 70
     0
 43
0.0
 10
1902.5
 20
126.5
 10
1902.5
 20
105.4999999999999
 10
1909.499999999999
 20
105.4999999999999
 10
1909.499999999999
 20
102.0
 10
1899.0
 20
102.0
 10
1899.0
 20
126.5
 10
1902.5
 20
126.5
  0
LWPOLYLINE
  5
35AA
102
{ACAD_REACTORS
330
3608
102
}
330
18
100
AcDbEntity
  8
WAKU
  6
Continuous
 62
     7
100
AcDbPolyline
 90
       13
 70
     0
 43
0.0
 10
1888.5
 20
102.0
 10
1874.5
 20
102.0
 10
1874.5
 20
126.5
 10
1888.5
 20
126.5
 10
1888.5
 20
123.0
 10
1878.0
 20
123.0
 10
1878.0
 20
116.0
 10
1888.5
 20
116.0
 10
1888.5
 20
112.5
 10
1878.0
 20
112.5
 10
1878.0
 20
105.4999999999999
 10
1888.5
 20
105.4999999999999
 10
1888.5
 20
102.0
  0
POINT
  5
35AB
330
18
100
AcDbEntity
  8
TEN
  6
Continuous
 62
     4
100
AcDbPoint
 10
1652.2
 20
77.30000000000001
 30
0.0
  0
POINT
  5
35AC
330
18
100
AcDbEntity
  8
TEN
  6
Continuous
 62
     4
100
AcDbPoint
 10
1710.0
 20
77.0
 30
0.0
  0
POINT
  5
35AD
330
18
100
AcDbEntity
  8
TEN
  6
Continuous
 62
     4
100
AcDbPoint
 10
1767.8
 20
76.7
 30
0.0
  0
CIRCLE
  5
35AE
330
18
100
AcDbEntity
  8
WAKU
  6
Continuous
 62
     2
100
AcDbCircle
 10
1740.0
 20
69.5
 30
0.0
 40
3.0
  0
CIRCLE
  5
35AF
330
18
100
AcDbEntity
  8
WAKU
  6
Continuous
 62
     2
100
AcDbCircle
 10
1680.0
 20
69.5
 30
0.0
 40
3.0
  0
POINT
  5
35B0
330
18
100
AcDbEntity
  8
TEN
  6
Continuous
 62
     4
100
AcDbPoint
 10
3459.0
 20
104.0
 30
0.0
  0
POINT
  5
35B1
330
18
100
AcDbEntity
  8
TEN
  6
Continuous
 62
     4
100
AcDbPoint
 10
1510.0
 20
83.0
 30
0.0
  0
POINT
  5
35B2
330
18
100
AcDbEntity
  8
TEN
  6
Continuous
 62
     4
100
AcDbPoint
 10
1515.0
 20
194.0
 30
0.0
  0
POINT
  5
35B3
330
18
100
AcDbEntity
  8
TEN
  6
Continuous
 62
     4
100
AcDbPoint
 10
1738.0
 20
243.0
 30
0.0
  0
POINT
  5
35B4
330
18
100
AcDbEntity
  8
TEN
  6
Continuous
 62
     4
100
AcDbPoint
 10
1734.0
 20
131.0
 30
0.0
  0
POINT
  5
35B5
330
18
100
AcDbEntity
  8
TEN
  6
Continuous
 62
     4
100
AcDbPoint
 10
2839.0
 20
99.0
 30
0.0
  0
POINT
  5
35B6
330
18
100
AcDbEntity
  8
TEN
  6
Continuous
 62
     4
100
AcDbPoint
 10
3074.0
 20
211.0
 30
0.0
  0
POINT
  5
35B7
330
18
100
AcDbEntity
  8
TEN
  6
Continuous
 62
     4
100
AcDbPoint
 10
3220.0
 20
103.0
 30
0.0
  0
POINT
  5
35B8
330
18
100
AcDbEntity
  8
TEN
  6
Continuous
 62
     4
100
AcDbPoint
 10
3648.0
 20
103.0
 30
0.0
  0
POINT
  5
35B9
330
18
100
AcDbEntity
  8
TEN
  6
Continuous
 62
     4
100
AcDbPoint
 10
3647.0
 20
215.0
 30
0.0
  0
TEXT
  5
35BA
330
18
100
AcDbEntity
  8
WAKU
  6
Continuous
 62
     1
100
AcDbText
 10
3859.0
 20
2832.0
 30
0.0
 40
25.0
  1
８
 41
0.84
  7
EXCADSTD
100
AcDbText
  0
TEXT
  5
35BB
330
18
100
AcDbEntity
  8
WAKU
  6
Continuous
 62
     1
100
AcDbText
 10
3392.0
 20
2837.0
 30
0.0
 40
25.0
  1
７
 41
0.84
  7
EXCADSTD
100
AcDbText
  0
TEXT
  5
35BC
330
18
100
AcDbEntity
  8
WAKU
  6
Continuous
 62
     1
100
AcDbText
 10
2887.0
 20
2837.0
 30
0.0
 40
25.0
  1
６
 41
0.84
  7
EXCADSTD
100
AcDbText
  0
TEXT
  5
35BD
330
18
100
AcDbEntity
  8
WAKU
  6
Continuous
 62
     1
100
AcDbText
 10
2376.0
 20
2837.0
 30
0.0
 40
25.0
  1
５
 41
0.84
  7
EXCADSTD
100
AcDbText
  0
TEXT
  5
35BE
330
18
100
AcDbEntity
  8
WAKU
  6
Continuous
 62
     1
100
AcDbText
 10
1890.0
 20
2837.0
 30
0.0
 40
25.0
  1
４
 41
0.84
  7
EXCADSTD
100
AcDbText
  0
TEXT
  5
35BF
330
18
100
AcDbEntity
  8
WAKU
  6
Continuous
 62
     1
100
AcDbText
 10
1375.0
 20
2837.0
 30
0.0
 40
25.0
  1
３
 41
0.84
  7
EXCADSTD
100
AcDbText
  0
TEXT
  5
35C0
330
18
100
AcDbEntity
  8
WAKU
  6
Continuous
 62
     1
100
AcDbText
 10
879.0
 20
2837.0
 30
0.0
 40
25.0
  1
２
 41
0.84
  7
EXCADSTD
100
AcDbText
  0
TEXT
  5
35C1
330
18
100
AcDbEntity
  8
WAKU
  6
Continuous
 62
     1
100
AcDbText
 10
378.0
 20
2837.0
 30
0.0
 40
25.0
  1
１
 41
0.84
  7
EXCADSTD
100
AcDbText
  0
TEXT
  5
35C2
330
18
100
AcDbEntity
  8
WAKU
  6
Continuous
 62
     1
100
AcDbText
 10
123.0
 20
520.0
 30
0.0
 40
25.0
  1
Ｅ
 41
0.84
  7
EXCADSTD
100
AcDbText
  0
TEXT
  5
35C3
330
18
100
AcDbEntity
  8
WAKU
  6
Continuous
 62
     1
100
AcDbText
 10
118.0
 20
1025.0
 30
0.0
 40
25.0
  1
Ｄ
 41
0.84
  7
EXCADSTD
100
AcDbText
  0
TEXT
  5
35C4
330
18
100
AcDbEntity
  8
WAKU
  6
Continuous
 62
     1
100
AcDbText
 10
123.0
 20
1531.0
 30
0.0
 40
25.0
  1
Ｃ
 41
0.84
  7
EXCADSTD
100
AcDbText
  0
TEXT
  5
35C5
330
18
100
AcDbEntity
  8
WAKU
  6
Continuous
 62
     1
100
AcDbText
 10
118.0
 20
2027.0
 30
0.0
 40
25.0
  1
Ｂ
 41
0.84
  7
EXCADSTD
100
AcDbText
  0
TEXT
  5
35C6
330
18
100
AcDbEntity
  8
WAKU
  6
Continuous
 62
     1
100
AcDbText
 10
118.0
 20
2527.0
 30
0.0
 40
25.0
  1
Ａ
 41
0.84
  7
EXCADSTD
100
AcDbText
  0
TEXT
  5
35C7
330
18
100
AcDbEntity
  8
WAKU
  6
Continuous
 62
     2
100
AcDbText
 10
1055.0
 20
170.0
 30
0.0
 40
30.0
  1
日塗工・マンセル
 41
0.84
  7
EXCADSTD
100
AcDbText
  0
TEXT
  5
35C8
330
18
100
AcDbEntity
  8
WAKU
  6
Continuous
 62
     2
100
AcDbText
 10
1056.0
 20
117.0
 30
0.0
 40
30.0
  1
外面
 41
0.84
  7
EXCADSTD
100
AcDbText
  0
LINE
  5
35C9
330
18
100
AcDbEntity
  8
WAKU
  6
DOT
 62
     3
100
AcDbLine
 10
210.0
 20
110.0
 30
0.0
 11
1401.0
 21
110.0
 31
0.0
  0
LINE
  5
35CA
330
18
100
AcDbEntity
  8
WAKU
  6
DOT
 62
     3
100
AcDbLine
 10
210.0
 20
210.0
 30
0.0
 11
1050.0
 21
210.0
 31
0.0
  0
LINE
  5
35CB
330
18
100
AcDbEntity
  8
WAKU
  6
Continuous
 62
     1
100
AcDbLine
 10
150.0
 20
320.0
 30
0.0
 11
170.0
 21
320.0
 31
0.0
  0
LINE
  5
35CC
330
18
100
AcDbEntity
  8
WAKU
  6
Continuous
 62
     1
100
AcDbLine
 10
150.0
 20
820.0
 30
0.0
 11
170.0
 21
820.0
 31
0.0
  0
LINE
  5
35CD
330
18
100
AcDbEntity
  8
WAKU
  6
Continuous
 62
     1
100
AcDbLine
 10
150.0
 20
1320.0
 30
0.0
 11
170.0
 21
1320.0
 31
0.0
  0
LINE
  5
35CE
330
18
100
AcDbEntity
  8
WAKU
  6
Continuous
 62
     1
100
AcDbLine
 10
150.0
 20
1820.0
 30
0.0
 11
170.0
 21
1820.0
 31
0.0
  0
LINE
  5
35CF
330
18
100
AcDbEntity
  8
WAKU
  6
Continuous
 62
     1
100
AcDbLine
 10
150.0
 20
2320.0
 30
0.0
 11
170.0
 21
2320.0
 31
0.0
  0
LINE
  5
35D0
330
18
100
AcDbEntity
  8
WAKU
  6
Continuous
 62
     1
100
AcDbLine
 10
3650.0
 20
2820.0
 30
0.0
 11
3650.0
 21
2800.0
 31
0.0
  0
LINE
  5
35D1
330
18
100
AcDbEntity
  8
WAKU
  6
Continuous
 62
     1
100
AcDbLine
 10
3150.0
 20
2820.0
 30
0.0
 11
3150.0
 21
2800.0
 31
0.0
  0
LINE
  5
35D2
330
18
100
AcDbEntity
  8
WAKU
  6
Continuous
 62
     1
100
AcDbLine
 10
2650.0
 20
2820.0
 30
0.0
 11
2650.0
 21
2800.0
 31
0.0
  0
LINE
  5
35D3
330
18
100
AcDbEntity
  8
WAKU
  6
Continuous
 62
     1
100
AcDbLine
 10
2150.0
 20
2820.0
 30
0.0
 11
2150.0
 21
2800.0
 31
0.0
  0
LINE
  5
35D4
330
18
100
AcDbEntity
  8
WAKU
  6
Continuous
 62
     1
100
AcDbLine
 10
1650.0
 20
2820.0
 30
0.0
 11
1650.0
 21
2800.0
 31
0.0
  0
LINE
  5
35D5
330
18
100
AcDbEntity
  8
WAKU
  6
Continuous
 62
     1
100
AcDbLine
 10
1150.0
 20
2820.0
 30
0.0
 11
1150.0
 21
2800.0
 31
0.0
  0
LINE
  5
35D6
330
18
100
AcDbEntity
  8
WAKU
  6
Continuous
 62
     1
100
AcDbLine
 10
650.0
 20
2820.0
 30
0.0
 11
650.0
 21
2800.0
 31
0.0
  0
POINT
  5
35D7
330
18
100
AcDbEntity
  8
TEN
  6
Continuous
 62
     4
100
AcDbPoint
 10
1820.172203531769
 20
221.000000000001
 30
0.0
  0
TEXT
  5
35D8
330
18
100
AcDbEntity
  8
WAKU
  6
Continuous
 62
     2
100
AcDbText
 10
3084.0
 20
89.0
 30
0.0
 40
30.0
  1
記号
 41
0.98
  7
EXCADSTD
100
AcDbText
  0
LINE
  5
35D9
330
18
100
AcDbEntity
  8
WAKU
  6
Continuous
 62
     3
100
AcDbLine
 10
3074.999968
 20
51.0
 30
0.0
 11
3074.999968
 21
160.4999999999999
 31
0.0
  0
LINE
  5
35DA
330
18
100
AcDbEntity
  8
WAKU
  6
Continuous
 62
     5
100
AcDbLine
 10
1918.89537202802
 20
179.7759999999999
 30
0.0
 11
1920.05588952606
 21
180.936517498042
 31
0.0
  0
CIRCLE
  5
35DB
330
18
100
AcDbEntity
  8
WAKU
  6
Continuous
 62
     2
100
AcDbCircle
 10
1740.0
 20
179.4999999999999
 30
0.0
 40
3.0
  0
CIRCLE
  5
35DC
330
18
100
AcDbEntity
  8
WAKU
  6
Continuous
 62
     2
100
AcDbCircle
 10
1680.0
 20
179.4999999999999
 30
0.0
 40
3.0
  0
TEXT
  5
35DD
330
18
100
AcDbEntity
  8
WAKU
  6
Continuous
 62
     2
100
AcDbText
 10
177.991667
 20
249.0
 30
0.0
 40
31.5
  1
変更記事
 41
0.8
  7
EXCADVERT
100
AcDbText
  0
LINE
  5
35DF
330
18
100
AcDbEntity
  8
WAKU
  6
Continuous
 62
     3
100
AcDbLine
 10
2549.999968
 20
160.4999999999999
 30
0.0
 11
4050.0
 21
160.4999999999999
 31
0.0
  0
LINE
  5
35E0
330
18
100
AcDbEntity
  8
WAKU
  6
DOT
 62
     3
100
AcDbLine
 10
1671.0
 20
213.75
 30
0.0
 11
1799.999975
 21
213.75
 31
0.0
  0
LINE
  5
35E1
330
18
100
AcDbEntity
  8
WAKU
  6
DOT
 62
     3
100
AcDbLine
 10
1671.0
 20
103.75
 30
0.0
 11
1799.999975
 21
103.75
 31
0.0
  0
LINE
  5
35E2
330
18
100
AcDbEntity
  8
WAKU
  6
Continuous
 62
     3
100
AcDbLine
 10
1401.0
 20
160.0
 30
0.0
 11
1799.999975
 21
160.0
 31
0.0
  0
LINE
  5
35E3
330
18
100
AcDbEntity
  8
WAKU
  6
DOT
 62
     3
100
AcDbLine
 10
210.0
 20
50.0
 30
0.0
 11
210.0
 21
270.0
 31
0.0
  0
LINE
  5
35E4
330
18
100
AcDbEntity
  8
WAKU
  6
DOT
 62
     3
100
AcDbLine
 10
210.0
 20
160.0
 30
0.0
 11
1401.0
 21
160.0
 31
0.0
  0
LINE
  5
35E5
330
18
100
AcDbEntity
  8
WAKU
  6
Continuous
 62
    11
100
AcDbLine
 10
150.0
 20
270.0
 30
0.0
 11
4050.0
 21
270.0
 31
0.0
  0
LINE
  5
35E6
330
18
100
AcDbEntity
  8
WAKU
  6
Continuous
 62
     3
100
AcDbLine
 10
1050.0
 20
270.0
 30
0.0
 11
1050.0
 21
50.0
 31
0.0
  0
LINE
  5
35E7
330
18
100
AcDbEntity
  8
WAKU
  6
Continuous
 62
     3
100
AcDbLine
 10
1400.0
 20
270.0
 30
0.0
 11
1400.0
 21
50.0
 31
0.0
  0
LINE
  5
35E8
330
18
100
AcDbEntity
  8
WAKU
  6
Continuous
 62
     3
100
AcDbLine
 10
1600.0
 20
270.0
 30
0.0
 11
1600.0
 21
50.0
 31
0.0
  0
LINE
  5
35E9
330
18
100
AcDbEntity
  8
WAKU
  6
Continuous
 62
     3
100
AcDbLine
 10
1799.999975
 20
270.0
 30
0.0
 11
1799.999975
 21
49.90000000000009
 31
0.0
  0
LINE
  5
35EA
330
18
100
AcDbEntity
  8
WAKU
  6
Continuous
 62
     3
100
AcDbLine
 10
2549.999968
 20
270.0
 30
0.0
 11
2549.999968
 21
50.0
 31
0.0
  0
TEXT
  5
35EB
330
18
100
AcDbEntity
  8
WAKU
  6
Continuous
 62
     2
100
AcDbText
 10
3310.0
 20
91.0
 30
0.0
 40
30.0
  1
製作数
 41
0.933333333333333
  7
EXCADSTD
100
AcDbText
  0
LINE
  5
35EC
330
18
100
AcDbEntity
  8
WAKU
  6
Continuous
 62
     3
100
AcDbLine
 10
3550.0
 20
160.4999999999999
 30
0.0
 11
3550.0
 21
50.0
 31
0.0
  0
LINE
  5
35ED
330
18
100
AcDbEntity
  8
WAKU
  6
Continuous
 62
     3
100
AcDbLine
 10
3300.0
 20
160.4999999999999
 30
0.0
 11
3300.0
 21
51.0
 31
0.0
  0
LINE
  5
35EE
330
18
100
AcDbEntity
  8
WAKU
  6
Continuous
 62
     3
100
AcDbLine
 10
3550.0
 20
270.0
 30
0.0
 11
3550.0
 21
160.4999999999999
 31
0.0
  0
TEXT
  5
35EF
330
18
100
AcDbEntity
  8
WAKU
  6
Continuous
 62
    11
100
AcDbText
 10
2002.0
 20
123.0
 30
0.0
 40
50.0
  1
エ－スライオン株式会社
 41
0.7636363636363641
  7
EXCADSTD
100
AcDbText
  0
TEXT
  5
35F0
330
18
100
AcDbEntity
  8
WAKU
  6
Continuous
 62
     2
100
AcDbText
 10
3559.0
 20
90.0
 30
0.0
 40
30.0
  1
図番
 41
0.98
  7
EXCADSTD
100
AcDbText
  0
TEXT
  5
35F1
330
18
100
AcDbEntity
  8
WAKU
  6
Continuous
 62
     2
100
AcDbText
 10
3504.0
 20
89.0
 30
0.0
 40
30.0
  1
面
 41
1.12
  7
EXCADSTD
100
AcDbText
  0
TEXT
  5
35F2
330
18
100
AcDbEntity
  8
WAKU
  6
Continuous
 62
     2
100
AcDbText
 10
3553.000031999999
 20
197.0000000000009
 30
0.0
 40
30.0
  1
工番
 41
0.98
  7
EXCADSTD
100
AcDbText
  0
TEXT
  5
35F3
330
18
100
AcDbEntity
  8
WAKU
  6
Continuous
 62
     2
100
AcDbText
 10
2563.0
 20
91.0
 30
0.0
 40
30.0
  1
品名
 41
0.98
  7
EXCADSTD
100
AcDbText
  0
TEXT
  5
35F4
330
18
100
AcDbEntity
  8
WAKU
  6
Continuous
 62
     2
100
AcDbText
 10
3500.000031999999
 20
197.0000000000009
 30
0.0
 40
30.0
  1
殿
 41
1.12
  7
EXCADSTD
100
AcDbText
  0
TEXT
  5
35F5
330
18
100
AcDbEntity
  8
WAKU
  6
Continuous
 62
     2
100
AcDbText
 10
2560.0
 20
200.0
 30
0.0
 40
30.0
  1
納入先
 41
0.933333333333333
  7
EXCADSTD
100
AcDbText
  0
TEXT
  5
35F6
330
18
100
AcDbEntity
  8
WAKU
  6
Continuous
 62
     2
100
AcDbText
 10
1607.0
 20
117.5
 30
0.0
 40
30.0
  1
検図
 41
0.84
  7
EXCADSTD
100
AcDbText
  0
TEXT
  5
35F7
330
18
100
AcDbEntity
  8
WAKU
  6
Continuous
 62
     2
100
AcDbText
 10
1607.0
 20
231.0
 30
0.0
 40
30.0
  1
製図
 41
0.84
  7
EXCADSTD
100
AcDbText
  0
TEXT
  5
35F8
330
18
100
AcDbEntity
  8
WAKU
  6
Continuous
 62
     2
100
AcDbText
 10
1406.0
 20
117.5
 30
0.0
 40
30.0
  1
縮尺
 41
0.84
  7
EXCADSTD
100
AcDbText
  0
TEXT
  5
35F9
330
18
100
AcDbEntity
  8
WAKU
  6
Continuous
 62
     2
100
AcDbText
 10
1408.0
 20
231.0
 30
0.0
 40
30.0
  1
形式
 41
0.84
  7
EXCADSTD
100
AcDbText
  0
TEXT
  5
35FA
330
18
100
AcDbEntity
  8
WAKU
  6
Continuous
 62
     2
100
AcDbText
 10
1057.0
 20
61.0
 30
0.0
 40
30.0
  1
内面
 41
0.84
  7
EXCADSTD
100
AcDbText
  0
TEXT
  5
35FB
330
18
100
AcDbEntity
  8
WAKU
  6
Continuous
 62
     2
100
AcDbText
 10
1055.0
 20
222.0
 30
0.0
 40
30.0
  1
塗装色（艶　　　　　　）
 41
0.84
  7
EXCADSTD
100
AcDbText
  0
LWPOLYLINE
  5
35FC
330
18
100
AcDbEntity
  8
WAKU
  6
Continuous
 62
    11
100
AcDbPolyline
 90
        5
 70
     0
 43
0.0
 10
150.0
 20
50.0
 10
4050.0
 20
50.0
 10
4050.0
 20
2820.0
 10
150.0
 20
2820.0
 10
150.0
 20
50.0
  0
LWPOLYLINE
  5
35FE
102
{ACAD_REACTORS
330
35FF
102
}
330
18
100
AcDbEntity
  8
WAKU
  6
Continuous
 62
     1
100
AcDbPolyline
 90
        6
 70
     1
 43
0.0
 10
1876.16089539752
 20
150.592
 10
1904.538815828732
 20
150.592
 10
1896.114120700713
 20
136.0
 10
1849.999999999999
 20
136.0
 10
1873.057060350359
 20
175.9359999999999
 10
1890.793260619863
 20
175.9359999999999
  0
HATCH
  5
35FF
330
18
100
AcDbEntity
  8
WAKU-MOJI
  6
Continuous
100
AcDbHatch
 10
0.0
 20
0.0
 30
0.0
210
0.0
220
0.0
230
1.0
  2
SOLID
 70
     1
 71
     1
 91
        1
 92
        1
 93
        6
 72
     1
 10
1876.16089539752
 20
150.592
 11
1904.538815828732
 21
150.592
 72
     1
 10
1904.538815828732
 20
150.592
 11
1896.114120700713
 21
136.0
 72
     1
 10
1896.114120700713
 20
136.0
 11
1849.999999999999
 21
136.0
 72
     1
 10
1849.999999999999
 20
136.0
 11
1873.057060350359
 21
175.9359999999999
 72
     1
 10
1873.057060350359
 20
175.9359999999999
 11
1890.793260619863
 21
175.9359999999999
 72
     1
 10
1890.793260619863
 20
175.9359999999999
 11
1876.16089539752
 21
150.592
 97
        1
330
35FE
 75
     0
 76
     1
 98
        1
 10
0.0
 20
0.0
  0
LWPOLYLINE
  5
3600
102
{ACAD_REACTORS
330
3605
102
}
330
18
100
AcDbEntity
  8
WAKU
  6
Continuous
 62
     5
100
AcDbPolyline
 90
        4
 70
     1
 43
0.0
 10
1885.69691908368
 20
194.368
 10
1912.301219487945
 20
194.368
 10
1907.867169420561
 20
202.048
 10
1881.262869016305
 20
202.048
  0
LWPOLYLINE
  5
3601
102
{ACAD_REACTORS
330
3605
102
}
330
18
100
AcDbEntity
  8
WAKU
  6
Continuous
 62
     5
100
AcDbPolyline
 90
        4
 70
     1
 43
0.0
 10
1894.106923175614
 20
179.801445620907
 10
1920.711223579879
 20
179.801445620907
 10
1916.277173512495
 20
187.4814456209069
 10
1889.67287310824
 20
187.4814456209069
  0
LWPOLYLINE
  5
3602
102
{ACAD_REACTORS
330
3605
102
}
330
18
100
AcDbEntity
  8
WAKU
  6
Continuous
 62
     5
100
AcDbPolyline
 90
        4
 70
     1
 43
0.0
 10
1902.581517629864
 20
165.224799936228
 10
1929.185818034129
 20
165.224799936228
 10
1924.751767966745
 20
172.904799936228
 10
1898.14746756249
 20
172.904799936228
  0
LWPOLYLINE
  5
3603
102
{ACAD_REACTORS
330
3605
102
}
330
18
100
AcDbEntity
  8
WAKU
  6
Continuous
 62
     5
100
AcDbPolyline
 90
        4
 70
     1
 43
0.0
 10
1919.480960321884
 20
135.9541065740469
 10
1946.085260726149
 20
135.9541065740469
 10
1941.651210658765
 20
143.6341065740469
 10
1915.04691025451
 20
143.6341065740469
  0
LWPOLYLINE
  5
3604
102
{ACAD_REACTORS
330
3605
102
}
330
18
100
AcDbEntity
  8
WAKU
  6
Continuous
 62
     5
100
AcDbPolyline
 90
        4
 70
     1
 43
0.0
 10
1910.954438975874
 20
150.722474757159
 10
1937.558739380139
 20
150.722474757159
 10
1933.124689312755
 20
158.402474757159
 10
1906.5203889085
 20
158.402474757159
  0
HATCH
  5
3605
330
18
100
AcDbEntity
  8
WAKU-MOJI
  6
Continuous
100
AcDbHatch
 10
0.0
 20
0.0
 30
0.0
210
0.0
220
0.0
230
1.0
  2
SOLID
 70
     1
 71
     1
 91
        5
 92
        1
 93
        4
 72
     1
 10
1919.480960321884
 20
135.9541065740469
 11
1946.085260726149
 21
135.9541065740469
 72
     1
 10
1946.085260726149
 20
135.9541065740469
 11
1941.651210658765
 21
143.6341065740469
 72
     1
 10
1941.651210658765
 20
143.6341065740469
 11
1915.04691025451
 21
143.6341065740469
 72
     1
 10
1915.04691025451
 20
143.6341065740469
 11
1919.480960321884
 21
135.9541065740469
 97
        1
330
3603
 92
        1
 93
        4
 72
     1
 10
1910.954438975874
 20
150.722474757159
 11
1937.558739380139
 21
150.722474757159
 72
     1
 10
1937.558739380139
 20
150.722474757159
 11
1933.124689312755
 21
158.402474757159
 72
     1
 10
1933.124689312755
 20
158.402474757159
 11
1906.5203889085
 21
158.402474757159
 72
     1
 10
1906.5203889085
 20
158.402474757159
 11
1910.954438975874
 21
150.722474757159
 97
        1
330
3604
 92
        1
 93
        4
 72
     1
 10
1902.581517629864
 20
165.224799936228
 11
1929.185818034129
 21
165.224799936228
 72
     1
 10
1929.185818034129
 20
165.224799936228
 11
1924.751767966745
 21
172.904799936228
 72
     1
 10
1924.751767966745
 20
172.904799936228
 11
1898.14746756249
 21
172.904799936228
 72
     1
 10
1898.14746756249
 20
172.904799936228
 11
1902.581517629864
 21
165.224799936228
 97
        1
330
3602
 92
        1
 93
        4
 72
     1
 10
1894.106923175614
 20
179.801445620907
 11
1920.711223579879
 21
179.801445620907
 72
     1
 10
1920.711223579879
 20
179.801445620907
 11
1916.277173512495
 21
187.4814456209069
 72
     1
 10
1916.277173512495
 20
187.4814456209069
 11
1889.67287310824
 21
187.4814456209069
 72
     1
 10
1889.67287310824
 20
187.4814456209069
 11
1894.106923175614
 21
179.801445620907
 97
        1
330
3601
 92
        1
 93
        4
 72
     1
 10
1885.69691908368
 20
194.368
 11
1912.301219487945
 21
194.368
 72
     1
 10
1912.301219487945
 20
194.368
 11
1907.867169420561
 21
202.048
 72
     1
 10
1907.867169420561
 20
202.048
 11
1881.262869016305
 21
202.048
 72
     1
 10
1881.262869016305
 20
202.048
 11
1885.69691908368
 21
194.368
 97
        1
330
3600
 75
     0
 76
     1
 98
        1
 10
0.0
 20
0.0
  0
LWPOLYLINE
  5
3606
102
{ACAD_REACTORS
330
3607
102
}
330
18
100
AcDbEntity
  8
WAKU
  6
Continuous
 62
     7
100
AcDbPolyline
 90
        7
 70
     1
 43
0.0
 10
1843.0
 20
126.5
 10
1846.499999999999
 20
126.5
 10
1853.5
 20
102.0
 10
1850.0
 20
102.0
 10
1844.75
 20
120.375
 10
1839.5
 20
102.0
 10
1836.0
 20
102.0
  0
HATCH
  5
3607
330
18
100
AcDbEntity
  8
WAKU-MOJI
  6
Continuous
100
AcDbHatch
 10
0.0
 20
0.0
 30
0.0
210
0.0
220
0.0
230
1.0
  2
SOLID
 70
     1
 71
     1
 91
        2
 92
        1
 93
       69
 72
     1
 10
1869.39
 20
108.4624190070459
 11
1868.95046664168
 21
107.893481361466
 72
     1
 10
1868.95046664168
 20
107.893481361466
 11
1868.195926382809
 21
107.118483114415
 72
     1
 10
1868.195926382809
 20
107.118483114415
 11
1867.36244213045
 21
106.4822917315619
 72
     1
 10
1867.36244213045
 20
106.4822917315619
 11
1866.466236707499
 21
105.997289954516
 72
     1
 10
1866.466236707499
 20
105.997289954516
 11
1865.524753733089
 21
105.672917791188
 72
     1
 10
1865.524753733089
 20
105.672917791188
 11
1864.55631810239
 21
105.5154887767669
 72
     1
 10
1864.55631810239
 20
105.5154887767669
 11
1863.579779313389
 21
105.528067087948
 72
     1
 10
1863.579779313389
 20
105.528067087948
 11
1862.61414458282
 21
105.71040790221
 72
     1
 10
1862.61414458282
 20
105.71040790221
 11
1861.6782088923
 21
106.058962163013
 72
     1
 10
1861.6782088923
 20
106.058962163013
 11
1860.79018916545
 21
106.566945658146
 72
     1
 10
1860.79018916545
 20
106.566945658146
 11
1859.967369696139
 21
107.224471066698
 72
     1
 10
1859.967369696139
 20
107.224471066698
 11
1859.2257657294
 21
108.018740404517
 72
     1
 10
1859.2257657294
 20
108.018740404517
 11
1858.57981174287
 21
108.934294122408
 72
     1
 10
1858.57981174287
 20
108.934294122408
 11
1858.04208049616
 21
109.9533120086809
 72
     1
 10
1858.04208049616
 20
109.9533120086809
 11
1857.6230383163
 21
111.055960039295
 72
     1
 10
1857.6230383163
 20
111.055960039295
 11
1857.33084138268
 21
112.220776424578
 72
     1
 10
1857.33084138268
 20
112.220776424578
 11
1857.17117697625
 21
113.425089338548
 72
     1
 10
1857.17117697625
 20
113.425089338548
 11
1857.14715278305
 21
114.6454582002219
 72
     1
 10
1857.14715278305
 20
114.6454582002219
 11
1857.259236406689
 21
115.858129917856
 72
     1
 10
1857.259236406689
 20
115.858129917856
 11
1857.50524626691
 21
117.039501215859
 72
     1
 10
1857.50524626691
 20
117.039501215859
 11
1857.88039406164
 21
118.1665780457059
 72
     1
 10
1857.88039406164
 20
118.1665780457059
 11
1858.37737796575
 21
119.217423138934
 72
     1
 10
1858.37737796575
 20
119.217423138934
 11
1858.98652475288
 21
120.171582991124
 72
     1
 10
1858.98652475288
 20
120.171582991124
 11
1859.695978073699
 21
121.010485966092
 72
     1
 10
1859.695978073699
 20
121.010485966092
 11
1860.49192922631
 21
121.717803771669
 72
     1
 10
1860.49192922631
 20
121.717803771669
 11
1861.35888592692
 21
122.2797692713309
 72
     1
 10
1861.35888592692
 20
122.2797692713309
 11
1862.27997384949
 21
122.6854444458539
 72
     1
 10
1862.27997384949
 20
122.6854444458539
 11
1863.23726506533
 21
122.9269332894139
 72
     1
 10
1863.23726506533
 20
122.9269332894139
 11
1864.21212698983
 21
122.999535496362
 72
     1
 10
1864.21212698983
 20
122.999535496362
 11
1865.18558504451
 21
122.9018379473209
 72
     1
 10
1865.18558504451
 20
122.9018379473209
 11
1866.13869197564
 21
122.635742213956
 72
     1
 10
1866.13869197564
 20
122.635742213956
 11
1867.05289664094
 21
122.2064275470369
 72
     1
 10
1867.05289664094
 20
122.2064275470369
 11
1867.9104050865
 21
121.622250068216
 72
     1
 10
1867.9104050865
 20
121.622250068216
 11
1868.694526885819
 21
120.894580127628
 72
     1
 10
1868.694526885819
 20
120.894580127628
 11
1869.39
 21
120.0375809929539
 72
     1
 10
1869.39
 20
120.0375809929539
 11
1869.39
 21
124.858811196359
 72
     1
 10
1869.39
 20
124.858811196359
 11
1868.15817603983
 21
125.567524273263
 72
     1
 10
1868.15817603983
 20
125.567524273263
 11
1866.85759997358
 21
126.082591372041
 72
     1
 10
1866.85759997358
 20
126.082591372041
 11
1865.51052501831
 21
126.3951995518289
 72
     1
 10
1865.51052501831
 20
126.3951995518289
 11
1864.14
 21
126.5
 72
     1
 10
1864.14
 20
126.5
 11
1862.769474981689
 21
126.3951995518289
 72
     1
 10
1862.769474981689
 20
126.3951995518289
 11
1861.422400026419
 21
126.082591372041
 72
     1
 10
1861.422400026419
 20
126.082591372041
 11
1860.121823960169
 21
125.567524273263
 72
     1
 10
1860.121823960169
 20
125.567524273263
 11
1858.89
 21
124.858811196359
 72
     1
 10
1858.89
 20
124.858811196359
 11
1857.74800499541
 21
123.968578418568
 72
     1
 10
1857.74800499541
 20
123.968578418568
 11
1856.71537879754
 21
122.912058069535
 72
     1
 10
1856.71537879754
 20
122.912058069535
 11
1855.80978992694
 21
121.7073275053569
 72
     1
 10
1855.80978992694
 20
121.7073275053569
 11
1855.04673326026
 21
120.375
 72
     1
 10
1855.04673326026
 20
120.375
 11
1854.439264908629
 21
118.9378720464719
 72
     1
 10
1854.439264908629
 20
118.9378720464719
 11
1853.99777882397
 21
117.4205333025059
 72
     1
 10
1853.99777882397
 20
117.4205333025059
 11
1853.72982895558
 21
115.8489458546959
 72
     1
 10
1853.72982895558
 20
115.8489458546959
 11
1853.64
 21
114.25
 72
     1
 10
1853.64
 20
114.25
 11
1853.72982895558
 21
112.6510541453049
 72
     1
 10
1853.72982895558
 20
112.6510541453049
 11
1853.99777882397
 21
111.0794666974939
 72
     1
 10
1853.99777882397
 20
111.0794666974939
 11
1854.439264908629
 21
109.5621279535279
 72
     1
 10
1854.439264908629
 20
109.5621279535279
 11
1855.04673326026
 21
108.125
 72
     1
 10
1855.04673326026
 20
108.125
 11
1855.80978992694
 21
106.7926724946429
 72
     1
 10
1855.80978992694
 20
106.7926724946429
 11
1856.71537879754
 21
105.587941930465
 72
     1
 10
1856.71537879754
 20
105.587941930465
 11
1857.74800499541
 21
104.5314215814319
 72
     1
 10
1857.74800499541
 20
104.5314215814319
 11
1858.89
 21
103.6411888036409
 72
     1
 10
1858.89
 20
103.6411888036409
 11
1860.121823960169
 21
102.9324757267369
 72
     1
 10
1860.121823960169
 20
102.9324757267369
 11
1861.422400026419
 21
102.4174086279589
 72
     1
 10
1861.422400026419
 20
102.4174086279589
 11
1862.769474981689
 21
102.104800448171
 72
     1
 10
1862.769474981689
 20
102.104800448171
 11
1864.14
 21
102.0
 72
     1
 10
1864.14
 20
102.0
 11
1865.51052501831
 21
102.104800448171
 72
     1
 10
1865.51052501831
 20
102.104800448171
 11
1866.85759997358
 21
102.4174086279589
 72
     1
 10
1866.85759997358
 20
102.4174086279589
 11
1868.15817603983
 21
102.9324757267369
 72
     1
 10
1868.15817603983
 20
102.9324757267369
 11
1869.39
 21
103.6411888036409
 72
     1
 10
1869.39
 20
103.6411888036409
 11
1869.39
 21
108.4624190070459
 97
        1
330
35A4
 92
        1
 93
        7
 72
     1
 10
1843.0
 20
126.5
 11
1846.499999999999
 21
126.5
 72
     1
 10
1846.499999999999
 20
126.5
 11
1853.5
 21
102.0
 72
     1
 10
1853.5
 20
102.0
 11
1850.0
 21
102.0
 72
     1
 10
1850.0
 20
102.0
 11
1844.75
 21
120.375
 72
     1
 10
1844.75
 20
120.375
 11
1839.5
 21
102.0
 72
     1
 10
1839.5
 20
102.0
 11
1836.0
 21
102.0
 72
     1
 10
1836.0
 20
102.0
 11
1843.0
 21
126.5
 97
        1
330
3606
 75
     0
 76
     1
 98
        1
 10
0.0
 20
0.0
  0
HATCH
  5
3608
330
18
100
AcDbEntity
  8
WAKU-MOJI
  6
Continuous
100
AcDbHatch
 10
0.0
 20
0.0
 30
0.0
210
0.0
220
0.0
230
1.0
  2
SOLID
 70
     1
 71
     1
 91
        6
 92
        1
 93
       12
 72
     1
 10
1888.5
 20
102.0
 11
1874.5
 21
102.0
 72
     1
 10
1874.5
 20
102.0
 11
1874.5
 21
126.5
 72
     1
 10
1874.5
 20
126.5
 11
1888.5
 21
126.5
 72
     1
 10
1888.5
 20
126.5
 11
1888.5
 21
123.0
 72
     1
 10
1888.5
 20
123.0
 11
1878.0
 21
123.0
 72
     1
 10
1878.0
 20
123.0
 11
1878.0
 21
116.0
 72
     1
 10
1878.0
 20
116.0
 11
1888.5
 21
116.0
 72
     1
 10
1888.5
 20
116.0
 11
1888.5
 21
112.5
 72
     1
 10
1888.5
 20
112.5
 11
1878.0
 21
112.5
 72
     1
 10
1878.0
 20
112.5
 11
1878.0
 21
105.4999999999999
 72
     1
 10
1878.0
 20
105.4999999999999
 11
1888.5
 21
105.4999999999999
 72
     1
 10
1888.5
 20
105.4999999999999
 11
1888.5
 21
102.0
 97
        1
330
35AA
 92
        1
 93
        6
 72
     1
 10
1902.5
 20
126.5
 11
1902.5
 21
105.4999999999999
 72
     1
 10
1902.5
 20
105.4999999999999
 11
1909.499999999999
 21
105.4999999999999
 72
     1
 10
1909.499999999999
 20
105.4999999999999
 11
1909.499999999999
 21
102.0
 72
     1
 10
1909.499999999999
 20
102.0
 11
1899.0
 21
102.0
 72
     1
 10
1899.0
 20
102.0
 11
1899.0
 21
126.5
 72
     1
 10
1899.0
 20
126.5
 11
1902.5
 21
126.5
 97
        1
330
35A9
 92
        1
 93
        4
 72
     1
 10
1913.0
 20
126.5
 11
1913.0
 21
102.0
 72
     1
 10
1913.0
 20
102.0
 11
1916.5
 21
102.0
 72
     1
 10
1916.5
 20
102.0
 11
1916.5
 21
126.5
 72
     1
 10
1916.5
 20
126.5
 11
1913.0
 21
126.5
 97
        1
330
35A8
 92
        1
 93
       10
 72
     1
 10
1937.5
 20
102.0
 11
1941.0
 21
102.0
 72
     1
 10
1941.0
 20
102.0
 11
1941.0
 21
119.5
 72
     1
 10
1941.0
 20
119.5
 11
1951.5
 21
102.0
 72
     1
 10
1951.5
 20
102.0
 11
1955.0
 21
102.0
 72
     1
 10
1955.0
 20
102.0
 11
1955.0
 21
126.5
 72
     1
 10
1955.0
 20
126.5
 11
1951.5
 21
126.5
 72
     1
 10
1951.5
 20
126.5
 11
1951.5
 21
109.0
 72
     1
 10
1951.5
 20
109.0
 11
1941.0
 21
126.5
 72
     1
 10
1941.0
 20
126.5
 11
1937.5
 21
126.5
 72
     1
 10
1937.5
 20
126.5
 11
1937.5
 21
102.0
 97
        1
330
35A7
 92
        1
 93
       48
 72
     1
 10
1927.0
 20
126.5
 11
1925.85789581807
 21
126.3951995518289
 72
     1
 10
1925.85789581807
 20
126.3951995518289
 11
1924.73533335535
 21
126.082591372041
 72
     1
 10
1924.73533335535
 20
126.082591372041
 11
1923.65151996681
 21
125.567524273263
 72
     1
 10
1923.65151996681
 20
125.567524273263
 11
1922.625
 21
124.858811196359
 72
     1
 10
1922.625
 20
124.858811196359
 11
1921.67333749617
 21
123.968578418568
 72
     1
 10
1921.67333749617
 20
123.968578418568
 11
1920.81281566462
 21
122.912058069535
 72
     1
 10
1920.81281566462
 20
122.912058069535
 11
1920.05815827245
 21
121.7073275053569
 72
     1
 10
1920.05815827245
 20
121.7073275053569
 11
1919.42227771689
 21
120.375
 72
     1
 10
1919.42227771689
 20
120.375
 11
1918.91605409053
 21
118.9378720464719
 72
     1
 10
1918.91605409053
 20
118.9378720464719
 11
1918.54814901997
 21
117.4205333025059
 72
     1
 10
1918.54814901997
 20
117.4205333025059
 11
1918.324857462979
 21
115.8489458546959
 72
     1
 10
1918.324857462979
 20
115.8489458546959
 11
1918.25
 21
114.25
 72
     1
 10
1918.25
 20
114.25
 11
1918.324857462979
 21
112.6510541453039
 72
     1
 10
1918.324857462979
 20
112.6510541453039
 11
1918.54814901997
 21
111.0794666974939
 72
     1
 10
1918.54814901997
 20
111.0794666974939
 11
1918.91605409053
 21
109.5621279535279
 72
     1
 10
1918.91605409053
 20
109.5621279535279
 11
1919.42227771689
 21
108.125
 72
     1
 10
1919.42227771689
 20
108.125
 11
1920.05815827245
 21
106.7926724946429
 72
     1
 10
1920.05815827245
 20
106.7926724946429
 11
1920.81281566462
 21
105.587941930465
 72
     1
 10
1920.81281566462
 20
105.587941930465
 11
1921.67333749617
 21
104.5314215814319
 72
     1
 10
1921.67333749617
 20
104.5314215814319
 11
1922.625
 21
103.6411888036409
 72
     1
 10
1922.625
 20
103.6411888036409
 11
1923.65151996681
 21
102.9324757267369
 72
     1
 10
1923.65151996681
 20
102.9324757267369
 11
1924.73533335535
 21
102.4174086279589
 72
     1
 10
1924.73533335535
 20
102.4174086279589
 11
1925.85789581807
 21
102.104800448171
 72
     1
 10
1925.85789581807
 20
102.104800448171
 11
1927.0
 21
102.0
 72
     1
 10
1927.0
 20
102.0
 11
1928.142104181929
 21
102.104800448171
 72
     1
 10
1928.142104181929
 20
102.104800448171
 11
1929.264666644649
 21
102.4174086279589
 72
     1
 10
1929.264666644649
 20
102.4174086279589
 11
1930.34848003319
 21
102.9324757267369
 72
     1
 10
1930.34848003319
 20
102.9324757267369
 11
1931.375
 21
103.6411888036409
 72
     1
 10
1931.375
 20
103.6411888036409
 11
1932.326662503829
 21
104.5314215814319
 72
     1
 10
1932.326662503829
 20
104.5314215814319
 11
1933.18718433538
 21
105.587941930465
 72
     1
 10
1933.18718433538
 20
105.587941930465
 11
1933.94184172755
 21
106.7926724946429
 72
     1
 10
1933.94184172755
 20
106.7926724946429
 11
1934.577722283109
 21
108.125
 72
     1
 10
1934.577722283109
 20
108.125
 11
1935.08394590947
 21
109.5621279535279
 72
     1
 10
1935.08394590947
 20
109.5621279535279
 11
1935.45185098003
 21
111.0794666974939
 72
     1
 10
1935.45185098003
 20
111.0794666974939
 11
1935.67514253702
 21
112.6510541453039
 72
     1
 10
1935.67514253702
 20
112.6510541453039
 11
1935.75
 21
114.25
 72
     1
 10
1935.75
 20
114.25
 11
1935.67514253702
 21
115.8489458546959
 72
     1
 10
1935.67514253702
 20
115.8489458546959
 11
1935.45185098003
 21
117.4205333025059
 72
     1
 10
1935.45185098003
 20
117.4205333025059
 11
1935.08394590947
 21
118.9378720464719
 72
     1
 10
1935.08394590947
 20
118.9378720464719
 11
1934.577722283109
 21
120.375
 72
     1
 10
1934.577722283109
 20
120.375
 11
1933.94184172755
 21
121.7073275053569
 72
     1
 10
1933.94184172755
 20
121.7073275053569
 11
1933.18718433538
 21
122.912058069535
 72
     1
 10
1933.18718433538
 20
122.912058069535
 11
1932.326662503829
 21
123.968578418568
 72
     1
 10
1932.326662503829
 20
123.968578418568
 11
1931.375
 21
124.858811196359
 72
     1
 10
1931.375
 20
124.858811196359
 11
1930.34848003319
 21
125.567524273263
 72
     1
 10
1930.34848003319
 20
125.567524273263
 11
1929.264666644649
 21
126.082591372041
 72
     1
 10
1929.264666644649
 20
126.082591372041
 11
1928.142104181929
 21
126.3951995518289
 72
     1
 10
1928.142104181929
 20
126.3951995518289
 11
1927.0
 21
126.5
 97
        1
330
35A6
 92
       16
 93
       45
 72
     1
 10
1932.25
 20
114.25
 11
1932.19890736089
 21
115.4677646334009
 72
     1
 10
1932.19890736089
 20
115.4677646334009
 11
1932.04662390368
 21
116.661826863399
 72
     1
 10
1932.04662390368
 20
116.661826863399
 11
1931.79611365262
 21
117.808945626913
 72
     1
 10
1931.79611365262
 20
117.808945626913
 11
1931.45225250482
 21
118.886793562041
 72
     1
 10
1931.45225250482
 20
118.886793562041
 11
1931.02173332638
 21
119.8743915847569
 72
     1
 10
1931.02173332638
 20
119.8743915847569
 11
1930.512935683379
 21
120.7525172229269
 72
     1
 10
1930.512935683379
 20
120.7525172229269
 11
1929.93576274322
 21
121.504078759857
 72
     1
 10
1929.93576274322
 20
121.504078759857
 11
1929.30144852064
 21
122.114447905118
 72
     1
 10
1929.30144852064
 20
122.114447905118
 11
1928.62233922047
 21
122.571744517583
 72
     1
 10
1928.62233922047
 20
122.571744517583
 11
1927.911652932749
 21
122.8670678388569
 72
     1
 10
1927.911652932749
 20
122.8670678388569
 11
1927.18322235769
 21
122.9946697364169
 72
     1
 10
1927.18322235769
 20
122.9946697364169
 11
1926.45122556785
 21
122.9520665844719
 72
     1
 10
1926.45122556785
 20
122.9520665844719
 11
1925.7299100481
 21
122.740087604915
 72
     1
 10
1925.7299100481
 20
122.740087604915
 11
1925.03331538457
 21
122.3628587274589
 72
     1
 10
1925.03331538457
 20
122.3628587274589
 11
1924.375
 21
121.8277222831139
 72
     1
 10
1924.375
 20
121.8277222831139
 11
1923.767777254539
 21
121.145094094059
 72
     1
 10
1923.767777254539
 20
121.145094094059
 11
1923.223466048219
 21
120.328260741516
 72
     1
 10
1923.223466048219
 20
120.328260741516
 11
1922.752660779529
 21
119.393120957559
 72
     1
 10
1922.752660779529
 20
119.393120957559
 11
1922.36452513749
 21
118.357876174377
 72
     1
 10
1922.36452513749
 20
118.357876174377
 11
1922.066613740869
 21
117.2426762540999
 72
     1
 10
1922.066613740869
 20
117.2426762540999
 11
1921.864725096149
 21
116.0692272946549
 72
     1
 10
1921.864725096149
 20
116.0692272946549
 11
1921.762788736139
 21
114.8603691452609
 72
     1
 10
1921.762788736139
 20
114.8603691452609
 11
1921.762788736139
 21
113.6396308547389
 72
     1
 10
1921.762788736139
 20
113.6396308547389
 11
1921.864725096149
 21
112.430772705345
 72
     1
 10
1921.864725096149
 20
112.430772705345
 11
1922.066613740869
 21
111.2573237458999
 72
     1
 10
1922.066613740869
 20
111.2573237458999
 11
1922.36452513749
 21
110.142123825624
 72
     1
 10
1922.36452513749
 20
110.142123825624
 11
1922.752660779529
 21
109.106879042441
 72
     1
 10
1922.752660779529
 20
109.106879042441
 11
1923.223466048219
 21
108.171739258484
 72
     1
 10
1923.223466048219
 20
108.171739258484
 11
1923.767777254539
 21
107.3549059059409
 72
     1
 10
1923.767777254539
 20
107.3549059059409
 11
1924.375
 21
106.6722777168859
 72
     1
 10
1924.375
 20
106.6722777168859
 11
1925.03331538457
 21
106.137141272541
 72
     1
 10
1925.03331538457
 20
106.137141272541
 11
1925.7299100481
 21
105.7599123950849
 72
     1
 10
1925.7299100481
 20
105.7599123950849
 11
1926.45122556785
 21
105.547933415528
 72
     1
 10
1926.45122556785
 20
105.547933415528
 11
1927.18322235769
 21
105.5053302635829
 72
     1
 10
1927.18322235769
 20
105.5053302635829
 11
1927.911652932749
 21
105.632932161143
 72
     1
 10
1927.911652932749
 20
105.632932161143
 11
1928.62233922047
 21
105.9282554824169
 72
     1
 10
1928.62233922047
 20
105.9282554824169
 11
1929.30144852064
 21
106.385552094882
 72
     1
 10
1929.30144852064
 20
106.385552094882
 11
1929.93576274322
 21
106.995921240143
 72
     1
 10
1929.93576274322
 20
106.995921240143
 11
1930.512935683379
 21
107.747482777073
 72
     1
 10
1930.512935683379
 20
107.747482777073
 11
1931.02173332638
 21
108.625608415243
 72
     1
 10
1931.02173332638
 20
108.625608415243
 11
1931.45225250482
 21
109.6132064379599
 72
     1
 10
1931.45225250482
 20
109.6132064379599
 11
1931.79611365262
 21
110.691054373087
 72
     1
 10
1931.79611365262
 20
110.691054373087
 11
1932.04662390368
 21
111.838173136601
 72
     1
 10
1932.04662390368
 20
111.838173136601
 11
1932.19890736089
 21
113.032235366599
 72
     1
 10
1932.19890736089
 20
113.032235366599
 11
1932.25
 21
114.25
 97
        1
330
35A5
 75
     0
 76
     1
 98
        1
 10
0.0
 20
0.0
  0
TEXT
  5
3609
330
18
100
AcDbEntity
  8
WAKU-MOJI
  6
Continuous
100
AcDbText
 10
2852.8
 20
191.0
 30
0.0
 40
40.0
  1
内部雷保護システム(分電盤）
 41
0.7
  7
M7
 72
     1
 11
3074.0
 21
211.0
 31
0.0
100
AcDbText
 73
     2
  0
TEXT
  5
3621
330
18
100
AcDbEntity
  8
1
  6
Continuous
100
AcDbText
 10
3150.0
 20
2505.0
 30
0.0
 40
40.0
  1
SPD取付に伴う追加部
 41
0.7
  7
M7
 11
3150.0
 21
2525.0
 31
0.0
100
AcDbText
 73
     2
  0
LINE
  5
3622
330
18
100
AcDbEntity
  8
1
  6
DASHDOT
100
AcDbLine
 10
3100.0
 20
2500.0
 30
0.0
 11
3000.0
 21
2500.0
 31
0.0
  0
LINE
  5
3623
330
18
100
AcDbEntity
  8
1
  6
DASHDOT
100
AcDbLine
 10
3000.0
 20
2550.0
 30
0.0
 11
3100.0
 21
2550.0
 31
0.0
  0
LINE
  5
3624
330
18
100
AcDbEntity
  8
1
  6
DASHDOT
100
AcDbLine
 10
3000.0
 20
2500.0
 30
0.0
 11
3000.0
 21
2550.0
 31
0.0
  0
LINE
  5
3625
330
18
100
AcDbEntity
  8
1
  6
DASHDOT
100
AcDbLine
 10
3100.0
 20
2550.0
 30
0.0
 11
3100.0
 21
2500.0
 31
0.0
  0
TEXT
  5
362B
330
18
100
AcDbEntity
  8
1
  6
Continuous
100
AcDbText
 10
2700.0
 20
2392.5
 30
0.0
 40
40.0
  1
SPD保護用MCCB
 41
0.7
  7
M7
 11
2700.0
 21
2412.5
 31
0.0
100
AcDbText
 73
     2
  0
LINE
  5
362D
330
18
100
AcDbEntity
  8
1
  6
DASHDOT
100
AcDbLine
 10
2800.0
 20
2425.0
 30
0.0
 11
2800.0
 21
2600.0
 31
0.0
  0
LINE
  5
362F
330
18
100
AcDbEntity
  8
1
  6
DASHDOT
100
AcDbLine
 10
2800.0
 20
2100.0
 30
0.0
 11
2800.0
 21
2287.5
 31
0.0
  0
INSERT
  5
3643
330
18
100
AcDbEntity
  8
1
  6
Continuous
100
AcDbBlockReference
  2
TB-EU
 10
2600.0
 20
2075.0
 30
0.0
  0
LWPOLYLINE
  5
3644
330
18
100
AcDbEntity
  8
1
  6
Continuous
100
AcDbPolyline
 90
        2
 70
     0
 43
0.0
 10
2510.0
 20
2075.0
 10
2540.0
 20
2075.0
  0
INSERT
  5
3645
330
18
100
AcDbEntity
  8
1
  6
Continuous
100
AcDbBlockReference
  2
TB-EU
 10
2500.0
 20
2075.0
 30
0.0
  0
LWPOLYLINE
  5
3646
330
18
100
AcDbEntity
  8
1
  6
Continuous
100
AcDbPolyline
 90
        2
 70
     0
 43
0.0
 10
2560.0
 20
2075.0
 10
2590.0
 20
2075.0
  0
INSERT
  5
3647
330
18
100
AcDbEntity
  8
1
  6
Continuous
100
AcDbBlockReference
  2
AL03
 10
2550.0
 20
2075.0
 30
0.0
  0
TEXT
  5
3649
330
18
100
AcDbEntity
  8
1
  6
Continuous
100
AcDbText
 10
2762.5
 20
2042.499999999999
 30
0.0
 40
40.0
  1
デーンガードMTT275FM同等品
 41
0.7
  7
M7
 11
2762.5
 21
2062.5
 31
0.0
100
AcDbText
 73
     2
  0
TEXT
  5
364C
330
18
100
AcDbEntity
  8
1
  6
Continuous
100
AcDbText
 10
2479.290640583167
 20
2093.278173243017
 30
0.0
 40
25.0
  1
R
 41
0.7
  7
M7
 72
     1
 11
2485.123973916501
 21
2105.778173243017
 31
0.0
100
AcDbText
 73
     2
  0
TEXT
  5
364E
330
18
100
AcDbEntity
  8
1
  6
Continuous
100
AcDbText
 10
2579.290640583167
 20
2093.278173243017
 30
0.0
 40
25.0
  1
T
 41
0.7
  7
M7
 72
     1
 11
2585.123973916501
 21
2105.778173243017
 31
0.0
100
AcDbText
 73
     2
  0
INSERT
  5
364F
330
18
100
AcDbEntity
  8
1
  6
Continuous
100
AcDbBlockReference
  2
TB-EU
 10
2650.0
 20
2075.0
 30
0.0
  0
LINE
  5
3650
330
18
100
AcDbEntity
  8
1
  6
Continuous
100
AcDbLine
 10
2650.0
 20
2099.999999999999
 30
0.0
 11
2650.0
 21
2090.0
 31
0.0
  0
LINE
  5
3653
330
18
100
AcDbEntity
  8
SIN-JIS
  6
ByBlock
100
AcDbLine
 10
2650.0
 20
2144.999999
 30
0.0
 11
2650.0
 21
2100.0
 31
0.0
  0
LINE
  5
3654
330
18
100
AcDbEntity
  8
SIN-JIS
  6
ByBlock
100
AcDbLine
 10
2550.0
 20
2294.999999
 30
0.0
 11
2550.0
 21
2150.0
 31
0.0
  0
ARC
  5
3656
330
18
100
AcDbEntity
  8
1
  6
Continuous
100
AcDbCircle
 10
2600.0
 20
2150.0
 30
0.0
 40
12.5
100
AcDbArc
 50
0.0
 51
180.0
  0
LINE
  5
3657
330
18
100
AcDbEntity
  8
1
  6
Continuous
100
AcDbLine
 10
2550.0
 20
2150.0
 30
0.0
 11
2587.5
 21
2150.0
 31
0.0
  0
LINE
  5
3658
330
18
100
AcDbEntity
  8
1
  6
Continuous
100
AcDbLine
 10
2612.5
 20
2150.0
 30
0.0
 11
2650.0
 21
2150.0
 31
0.0
  0
LINE
  5
3659
330
18
100
AcDbEntity
  8
1
  6
Continuous
100
AcDbLine
 10
2600.0
 20
1950.0
 30
0.0
 11
2650.0
 21
1950.0
 31
0.0
  0
CIRCLE
  5
365B
330
18
100
AcDbEntity
  8
1
  6
Continuous
100
AcDbCircle
 10
2600.0
 20
1950.0
 30
0.0
 40
2.5
  0
CIRCLE
  5
365C
330
18
100
AcDbEntity
  8
1
  6
Continuous
100
AcDbCircle
 10
2650.0
 20
1950.0
 30
0.0
 40
2.5
  0
TEXT
  5
365E
330
18
100
AcDbEntity
  8
1
  6
Continuous
100
AcDbText
 10
2629.290640583167
 20
2093.278173243017
 30
0.0
 40
25.0
  1
N
 41
0.7
  7
M7
 72
     1
 11
2635.123973916501
 21
2105.778173243017
 31
0.0
100
AcDbText
 73
     2
  0
TEXT
  5
3666
330
18
100
AcDbEntity
  8
1
  6
Continuous
100
AcDbText
 10
2762.500007221084
 20
1837.499995068769
 30
0.0
 40
40.0
  1
避雷器形式：SPD故障表示、故障出力接点を有すること
 41
0.7
  7
M7
 11
2762.500007221084
 21
1857.499995068769
 31
0.0
100
AcDbText
 73
     2
  0
TEXT
  5
3667
330
18
100
AcDbEntity
  8
1
  6
Continuous
100
AcDbText
 10
2762.500007221084
 20
1937.499995068769
 30
0.0
 40
40.0
  1
公称放電電流：20kA(8/20μs)
 41
0.7
  7
M7
 11
2762.500007221084
 21
1957.499995068769
 31
0.0
100
AcDbText
 73
     2
  0
TEXT
  5
3668
330
18
100
AcDbEntity
  8
1
  6
Continuous
100
AcDbText
 10
2762.500007221084
 20
1887.499995068769
 30
0.0
 40
40.0
  1
電圧防護レベル：1.5kV(20kA(8/20μs)時の値)
 41
0.7
  7
M7
 11
2762.500007221084
 21
1907.499995068769
 31
0.0
100
AcDbText
 73
     2
  0
TEXT
  5
3674
330
18
100
AcDbEntity
  8
1
  6
Continuous
100
AcDbText
 10
2762.500007221084
 20
1987.499995068769
 30
0.0
 40
40.0
  1
避雷器方式：酸化亜鉛素子
 41
0.7
  7
M7
 11
2762.500007221084
 21
2007.499995068769
 31
0.0
100
AcDbText
 73
     2
  0
TEXT
  5
3675
330
18
100
AcDbEntity
  8
WAKU-MOJI
  6
Continuous
100
AcDbText
 10
2689.233333333333
 20
91.0
 30
0.0
 40
40.0
  1
1φ3W接地相有
 41
0.7
  7
M7
 72
     1
 11
2811.5
 21
111.0
 31
0.0
100
AcDbText
 73
     2
  0
LINE
  5
36D2
330
18
100
AcDbEntity
  8
1
  6
Continuous
100
AcDbLine
 10
2650.0
 20
1950.0
 30
0.0
 11
2650.0
 21
2065.0
 31
0.0
  0
HATCH
  5
36D3
330
18
100
AcDbEntity
  8
1
  6
Continuous
100
AcDbHatch
 10
0.0
 20
0.0
 30
0.0
210
0.0
220
0.0
230
1.0
  2
ANSI31
 70
     0
 71
     1
 91
        2
 92
        7
 72
     0
 73
     1
 93
        3
 10
2649.999999013346
 20
1903.749998744476
 10
2661.249999013346
 20
1918.749998744475
 10
2638.749999013346
 20
1918.749998744475
 97
        3
330
36DB
330
36DD
330
36DC
 92
        7
 72
     0
 73
     1
 93
        3
 10
2638.749999013345
 20
1881.249998744475
 10
2661.249999013346
 20
1881.249998744475
 10
2649.999999013346
 20
1896.249998744475
 97
        3
330
36D7
330
36D6
330
36D5
 75
     0
 76
     1
 52
0.0
 41
7.5
 77
     0
 78
     1
 53
45.0
 43
1299.999999013346
 44
868.7499987444757
 45
-0.6629126073623883
 46
0.6629126073623884
 79
     0
 47
0.7725813976425631
 98
        2
 10
2649.999999013346
 20
1911.249998744475
 10
2649.999999013346
 20
1888.749998744476
  0
CIRCLE
  5
36D4
330
18
100
AcDbEntity
  8
1
  6
Continuous
100
AcDbCircle
 10
2649.999999013346
 20
1899.999998744475
 30
0.0
 40
30.0
  0
LINE
  5
36D5
102
{ACAD_REACTORS
330
36D3
102
}
330
18
100
AcDbEntity
  8
1
  6
Continuous
100
AcDbLine
 10
2661.249999013346
 20
1881.249998744475
 30
0.0
 11
2649.999999013346
 21
1896.249998744475
 31
0.0
  0
LINE
  5
36D6
102
{ACAD_REACTORS
330
36D3
102
}
330
18
100
AcDbEntity
  8
1
  6
Continuous
100
AcDbLine
 10
2638.749999013346
 20
1881.249998744475
 30
0.0
 11
2661.249999013346
 21
1881.249998744475
 31
0.0
  0
LINE
  5
36D7
102
{ACAD_REACTORS
330
36D3
102
}
330
18
100
AcDbEntity
  8
1
  6
Continuous
100
AcDbLine
 10
2649.999999013346
 20
1896.249998744475
 30
0.0
 11
2638.749999013346
 21
1881.249998744475
 31
0.0
  0
LINE
  5
36D8
330
18
100
AcDbEntity
  8
1
  6
Continuous
100
AcDbLine
 10
2649.99999934223
 20
1887.499999162983
 30
0.0
 11
2649.99999934223
 21
1849.999999162983
 31
0.0
  0
HATCH
  5
36D9
330
18
100
AcDbEntity
  8
1
  6
Continuous
100
AcDbHatch
 10
0.0
 20
0.0
 30
0.0
210
0.0
220
0.0
230
1.0
  2
ANSI31
 70
     0
 71
     1
 91
        1
 92
        7
 72
     1
 73
     1
 93
        2
 10
2667.999999013346
 20
1892.499998744475
 42
1.0
 10
2661.999999013346
 20
1892.499998744475
 42
1.0
 97
        1
330
36DA
 75
     0
 76
     1
 52
0.0
 41
7.5
 77
     0
 78
     1
 53
45.0
 43
1352.499999013346
 44
654.9999987444757
 45
-0.6629126073623883
 46
0.6629126073623884
 79
     0
 47
1.081613949156753
 98
        1
 10
2664.999999013345
 20
1892.499998744475
  0
CIRCLE
  5
36DA
102
{ACAD_REACTORS
330
36D9
102
}
330
18
100
AcDbEntity
  8
1
  6
Continuous
100
AcDbCircle
 10
2664.999999013346
 20
1892.499998744475
 30
0.0
 40
3.0
  0
LINE
  5
36DB
102
{ACAD_REACTORS
330
36D3
102
}
330
18
100
AcDbEntity
  8
1
  6
Continuous
100
AcDbLine
 10
2661.249999013346
 20
1918.749998744475
 30
0.0
 11
2638.749999013346
 21
1918.749998744475
 31
0.0
  0
LINE
  5
36DC
102
{ACAD_REACTORS
330
36D3
102
}
330
18
100
AcDbEntity
  8
1
  6
Continuous
100
AcDbLine
 10
2649.999999013346
 20
1903.749998744475
 30
0.0
 11
2661.249999013346
 21
1918.749998744475
 31
0.0
  0
LINE
  5
36DD
102
{ACAD_REACTORS
330
36D3
102
}
330
18
100
AcDbEntity
  8
1
  6
Continuous
100
AcDbLine
 10
2638.749999013346
 20
1918.749998744475
 30
0.0
 11
2649.999999013346
 21
1903.749998744475
 31
0.0
  0
LINE
  5
36DE
330
18
100
AcDbEntity
  8
1
  6
Continuous
100
AcDbLine
 10
2649.99999934223
 20
1912.499999162983
 30
0.0
 11
2649.99999934223
 21
1949.999999162983
 31
0.0
  0
LINE
  5
36F6
330
18
100
AcDbEntity
  8
1
  6
Continuous
100
AcDbLine
 10
2600.0
 20
1850.0
 30
0.0
 11
2650.0
 21
1850.0
 31
0.0
  0
CIRCLE
  5
36F7
330
18
100
AcDbEntity
  8
1
  6
Continuous
100
AcDbCircle
 10
2650.000001299854
 20
1849.999999162983
 30
0.0
 40
2.0
  0
LINE
  5
36F8
330
18
100
AcDbEntity
  8
1
  6
Continuous
100
AcDbLine
 10
2600.0
 20
1810.0
 30
0.0
 11
2600.0
 21
1850.0
 31
0.0
  0
LINE
  5
370D
330
18
100
AcDbEntity
  8
1
  6
Continuous
100
AcDbLine
 10
2471.874998520019
 20
2028.124998116713
 30
0.0
 11
2528.124998520019
 21
1971.874998116713
 31
0.0
  0
LINE
  5
370E
330
18
100
AcDbEntity
  8
1
  6
Continuous
100
AcDbLine
 10
2483.124998520019
 20
1971.874998116713
 30
0.0
 11
2483.124998520019
 21
2028.124998116713
 31
0.0
  0
LINE
  5
370F
330
18
100
AcDbEntity
  8
1
  6
Continuous
100
AcDbLine
 10
2516.874998520019
 20
2028.124998116713
 30
0.0
 11
2516.874998520019
 21
1971.874998116713
 31
0.0
  0
LINE
  5
3710
330
18
100
AcDbEntity
  8
1
  6
Continuous
100
AcDbLine
 10
2516.874998520019
 20
1971.874998116713
 30
0.0
 11
2483.124998520019
 21
1971.874998116713
 31
0.0
  0
LINE
  5
3711
330
18
100
AcDbEntity
  8
1
  6
Continuous
100
AcDbLine
 10
2499.999999013346
 20
1971.874998116713
 30
0.0
 11
2499.999999013346
 21
1949.999998744475
 31
0.0
  0
LINE
  5
3712
330
18
100
AcDbEntity
  8
1
  6
Continuous
100
AcDbLine
 10
2528.124998520019
 20
1971.874998116713
 30
0.0
 11
2528.124998520019
 21
1960.624998116713
 31
0.0
  0
LINE
  5
3713
330
18
100
AcDbEntity
  8
1
  6
Continuous
100
AcDbLine
 10
2483.124998520019
 20
2028.124998116713
 30
0.0
 11
2516.874998520019
 21
2028.124998116713
 31
0.0
  0
LINE
  5
3715
330
18
100
AcDbEntity
  8
1
  6
Continuous
100
AcDbLine
 10
2500.0
 20
2065.0
 30
0.0
 11
2499.999998520019
 21
2028.124998116713
 31
0.0
  0
LINE
  5
3716
330
18
100
AcDbEntity
  8
1
  6
Continuous
100
AcDbLine
 10
2616.874998520019
 20
2028.124998116713
 30
0.0
 11
2616.874998520019
 21
1971.874998116713
 31
0.0
  0
LINE
  5
3717
330
18
100
AcDbEntity
  8
1
  6
Continuous
100
AcDbLine
 10
2583.124998520019
 20
1971.874998116713
 30
0.0
 11
2583.124998520019
 21
2028.124998116713
 31
0.0
  0
LINE
  5
3718
330
18
100
AcDbEntity
  8
1
  6
Continuous
100
AcDbLine
 10
2571.874998520019
 20
2028.124998116713
 30
0.0
 11
2628.124998520019
 21
1971.874998116713
 31
0.0
  0
LINE
  5
3719
330
18
100
AcDbEntity
  8
1
  6
Continuous
100
AcDbLine
 10
2599.999999013346
 20
1971.874998116713
 30
0.0
 11
2599.999999013346
 21
1949.999998744475
 31
0.0
  0
LINE
  5
371B
330
18
100
AcDbEntity
  8
1
  6
Continuous
100
AcDbLine
 10
2616.874998520019
 20
1971.874998116713
 30
0.0
 11
2583.124998520019
 21
1971.874998116713
 31
0.0
  0
LINE
  5
371C
330
18
100
AcDbEntity
  8
1
  6
Continuous
100
AcDbLine
 10
2600.0
 20
2065.0
 30
0.0
 11
2599.999998520019
 21
2028.124998116713
 31
0.0
  0
LINE
  5
371D
330
18
100
AcDbEntity
  8
1
  6
Continuous
100
AcDbLine
 10
2583.124998520019
 20
2028.124998116713
 30
0.0
 11
2616.874998520019
 21
2028.124998116713
 31
0.0
  0
TEXT
  5
3732
330
18
100
AcDbEntity
  8
1
  6
Continuous
100
AcDbText
 10
3662.066666666666
 20
344.9999963238133
 30
0.0
 40
40.0
  1
保護対象機器へ
 41
0.7
  7
M7
 72
     1
 11
3775.0
 21
364.9999963238133
 31
0.0
100
AcDbText
 73
     2
  0
LINE
  5
3733
330
18
100
AcDbEntity
  8
1
  6
DASHDOT
100
AcDbLine
 10
3850.0
 20
300.0
 30
0.0
 11
3850.0
 21
325.0
 31
0.0
  0
TEXT
  5
3734
330
18
100
AcDbEntity
  8
1
  6
Continuous
100
AcDbText
 10
3721.6
 20
580.0
 30
0.0
 40
40.0
  1
筐体アース
 41
0.7
  7
M7
 72
     1
 11
3800.0
 21
600.0
 31
0.0
100
AcDbText
 73
     2
  0
LINE
  5
374F
330
18
100
AcDbEntity
  8
1
  6
Continuous
100
AcDbLine
 10
2628.124998520019
 20
1971.874998116713
 30
0.0
 11
2628.124998520019
 21
1960.624998116713
 31
0.0
  0
TEXT
  5
3798
330
18
100
AcDbEntity
  8
1
  6
Continuous
100
AcDbText
 10
250.0000045541018
 20
2392.500001903779
 30
0.0
 40
40.0
  1
(感電保護を確保するため充電相と中性相間にSPD、中性相と接地間にギャップSPDを接続する)
 41
0.7
  7
M7
 11
250.0000045541018
 21
2412.500001903779
 31
0.0
100
AcDbText
 73
     2
  0
TEXT
  5
3799
330
18
100
AcDbEntity
  8
1
  6
Continuous
100
AcDbText
 10
250.0000045541018
 20
2267.500001903779
 30
0.0
 40
40.0
  1
4.SPD回路の配線距離は極力短くすること。(推奨0.5m以下)
 41
0.7
  7
M7
 11
250.0000045541018
 21
2287.500001903779
 31
0.0
100
AcDbText
 73
     2
  0
TEXT
  5
379A
330
18
100
AcDbEntity
  8
1
  6
Continuous
100
AcDbText
 10
250.0000045541018
 20
2442.50000190378
 30
0.0
 40
40.0
  1
2.JIS C 0364-5-534 TT系統におけるサージ保護装置の施設 図B.2による結線をすること。
 41
0.7
  7
M7
 11
250.0000045541018
 21
2462.50000190378
 31
0.0
100
AcDbText
 73
     2
  0
LWPOLYLINE
  5
379B
330
18
100
AcDbEntity
  8
1
  6
Continuous
100
AcDbPolyline
 90
        4
 70
     1
 43
0.0
 10
200.0000045541018
 20
2650.00000190378
 10
1850.000004554101
 20
2650.00000190378
 10
1850.000004554101
 20
2150.00000190378
 10
200.0000045541018
 20
2150.00000190378
  0
TEXT
  5
379C
330
18
100
AcDbEntity
  8
1
  6
Continuous
100
AcDbText
 10
250.0000045541018
 20
2555.000001903779
 30
0.0
 40
40.0
  1
1.各種接地が共通化されていない場合(MCCBとELCB用接地が別系統など)は各接地に対して
 41
0.7
  7
M7
 11
250.0000045541018
 21
2575.000001903779
 31
0.0
100
AcDbText
 73
     2
  0
TEXT
  5
379D
330
18
100
AcDbEntity
  8
1
  6
Continuous
100
AcDbText
 10
250.0000045541018
 20
2330.000001903779
 30
0.0
 40
40.0
  1
3.SPD回路の配線太さは4sq以上とすること。
 41
0.7
  7
M7
 11
250.0000045541018
 21
2350.000001903779
 31
0.0
100
AcDbText
 73
     2
  0
TEXT
  5
379E
330
18
100
AcDbEntity
  8
1
  6
Continuous
100
AcDbText
 10
250.0000045541018
 20
2205.000001903779
 30
0.0
 40
40.0
  1
5.SPD回路はメインブレーカ一次側に設置すること。
 41
0.7
  7
M7
 11
250.0000045541018
 21
2225.000001903779
 31
0.0
100
AcDbText
 73
     2
  0
TEXT
  5
379F
330
18
100
AcDbEntity
  8
1
  6
Continuous
100
AcDbText
 10
275.0000045541018
 20
2505.00000190378
 30
0.0
 40
40.0
  1
SPDを設置すること
 41
0.7
  7
M7
 11
275.0000045541018
 21
2525.00000190378
 31
0.0
100
AcDbText
 73
     2
  0
TEXT
  5
37A0
330
18
100
AcDbEntity
  8
1
  6
Continuous
100
AcDbText
 10
212.5000045541018
 20
2667.50000190378
 30
0.0
 40
40.0
  1
注意事項
 41
0.7
  7
M7
 11
212.5000045541018
 21
2687.50000190378
 31
0.0
100
AcDbText
 73
     2
  0
TEXT
  5
37A6
330
18
100
AcDbEntity
  8
1
  6
Continuous
100
AcDbText
 10
2687.499997009143
 20
2344.166666759261
 30
0.0
 40
40.0
  1
3P50AF50AT
 41
0.7
  7
M7
 11
2687.499997009143
 21
2364.166666759261
 31
0.0
100
AcDbText
 73
     2
  0
LINE
  5
37C4
330
18
100
AcDbEntity
  8
1
  6
Continuous
370
     9
100
AcDbLine
 10
3950.000006527396
 20
2650.000002606383
 30
0.0
 11
2225.000006527396
 21
2650.000002606383
 31
0.0
  0
TEXT
  5
37C5
330
18
100
AcDbEntity
  8
1
  6
Continuous
100
AcDbText
 10
2837.500004447612
 20
2655.000003848451
 30
0.0
 40
40.0
  1
この間の線長は500ｍｍ以内とすること
 41
0.7
  7
M7
 11
2837.500004447612
 21
2675.000003848451
 31
0.0
100
AcDbText
 73
     2
  0
LINE
  5
37C6
330
18
100
AcDbEntity
  8
1
  6
Continuous
370
     9
100
AcDbLine
 10
2099.999993472603
 20
2550.000002606383
 30
0.0
 11
2224.999993472603
 21
2650.000002606383
 31
0.0
  0
LINE
  5
37C7
330
18
100
AcDbEntity
  8
1
  6
Continuous
370
     9
100
AcDbLine
 10
3950.000006527396
 20
2650.000002606383
 30
0.0
 11
3950.000006527396
 21
550.0000026063835
 31
0.0
  0
LINE
  5
37C8
330
18
100
AcDbEntity
  8
1
  6
Continuous
370
     9
100
AcDbLine
 10
3899.999993472604
 20
500.0000026063835
 30
0.0
 11
3949.999993472604
 21
550.0000026063835
 31
0.0
  0
LINE
  5
37DA
330
18
100
AcDbEntity
  8
1
  6
Continuous
370
     9
100
AcDbLine
 10
2500.000000724407
 20
2199.999998035698
 30
0.0
 11
3275.000000724407
 21
2199.999998035698
 31
0.0
  0
LINE
  5
37DB
330
18
100
AcDbEntity
  8
1
  6
Continuous
370
     9
100
AcDbLine
 10
2500.000000724407
 20
2199.999998035698
 30
0.0
 11
2525.000000724407
 21
2212.499998035697
 31
0.0
  0
TEXT
  5
37DC
330
18
100
AcDbEntity
  8
1
  6
Continuous
100
AcDbText
 10
3087.499998644624
 20
2217.499999277765
 30
0.0
 40
40.0
  1
4sq以上
 41
0.7
  7
M7
 11
3087.499998644624
 21
2237.499999277765
 31
0.0
100
AcDbText
 73
     2
  0
LINE
  5
37DE
330
18
100
AcDbEntity
  8
1
  6
Continuous
370
     9
100
AcDbLine
 10
2550.000000724407
 20
2199.999998035698
 30
0.0
 11
2575.000000724407
 21
2212.499998035697
 31
0.0
  0
LINE
  5
37DF
330
18
100
AcDbEntity
  8
1
  6
Continuous
370
     9
100
AcDbLine
 10
2600.000000724407
 20
2199.999998035698
 30
0.0
 11
2625.000000724407
 21
2212.499998035697
 31
0.0
  0
TEXT
  5
37E4
330
18
100
AcDbEntity
  8
1
  6
Continuous
100
AcDbText
 10
2062.499998644623
 20
1742.499999277765
 30
0.0
 40
40.0
  1
4sq以上（サイズは容量による)
 41
0.7
  7
M7
 11
2062.499998644623
 21
1762.499999277765
 31
0.0
100
AcDbText
 73
     2
  0
LINE
  5
37E5
330
18
100
AcDbEntity
  8
1
  6
Continuous
370
     9
100
AcDbLine
 10
2075.000000724407
 20
1724.999998035698
 30
0.0
 11
2650.000000724407
 21
1724.999998035698
 31
0.0
  0
LINE
  5
37E6
330
18
100
AcDbEntity
  8
1
  6
Continuous
370
     9
100
AcDbLine
 10
2649.999999275593
 20
1724.999998035698
 30
0.0
 11
2624.999999275593
 21
1737.499998035698
 31
0.0
  0
LINE
  5
37E7
330
18
100
AcDbEntity
  8
1
  6
Continuous
370
     9
100
AcDbLine
 10
2599.999999275593
 20
1724.999998035698
 30
0.0
 11
2574.999999275593
 21
1737.499998035698
 31
0.0
  0
TEXT
  5
37F2
330
18
100
AcDbEntity
  8
1
  6
Continuous
100
AcDbText
 10
1912.500004447612
 20
2725.000003848451
 30
0.0
 40
25.0
  1
キュービクルより
 41
0.7
  7
M7
 11
1912.500004447612
 21
2737.500003848451
 31
0.0
100
AcDbText
 73
     2
  0
TEXT
  5
37F3
330
18
100
AcDbEntity
  8
1
  6
Continuous
100
AcDbText
 10
1900.000004447612
 20
2687.500003848451
 30
0.0
 40
25.0
  1
1φ3W100/200V
 41
0.7
  7
M7
 11
1900.000004447612
 21
2700.000003848451
 31
0.0
100
AcDbText
 73
     2
  0
TEXT
  5
37F4
330
18
100
AcDbEntity
  8
1
  6
Continuous
100
AcDbText
 10
1950.000004447612
 20
2650.000003848451
 30
0.0
 40
25.0
  1
(接地相有)
 41
0.7
  7
M7
 11
1950.000004447612
 21
2662.500003848451
 31
0.0
100
AcDbText
 73
     2
  0
LINE
  5
37F5
330
18
100
AcDbEntity
  8
1
  6
DASHDOT
100
AcDbLine
 10
3850.0
 20
400.0
 30
0.0
 11
3850.0
 21
575.0
 31
0.0
  0
TEXT
  5
37FE
330
18
100
AcDbEntity
  8
WAKU-MOJI
  6
Continuous
100
AcDbText
 10
3747.800001730416
 20
192.2865268696577
 30
0.0
 40
40.0
  1
誘導雷対策
 41
0.7
  7
M7
 72
     1
 11
3828.066668397083
 21
212.2865268696577
 31
0.0
100
AcDbText
 73
     2
  0
TEXT
  5
3812
330
18
100
AcDbEntity
  8
1
  6
Continuous
100
AcDbText
 10
2687.499997009143
 20
2294.166666759261
 30
0.0
 40
40.0
  1
(設置点の遮断容量を満たすこと）
 41
0.7
  7
M7
 11
2687.499997009143
 21
2314.166666759261
 31
0.0
100
AcDbText
 73
     2
  0
ENDSEC
  0
SECTION
  2
OBJECTS
  0
DICTIONARY
  5
C
330
0
100
AcDbDictionary
281
     1
  3
ACAD_GROUP
350
D
  3
ACAD_LAYOUT
350
33F0
  3
ACAD_MLINESTYLE
350
E
  3
ACAD_PLOTSETTINGS
350
33F1
  3
ACAD_PLOTSTYLENAME
350
33EE
  3
AcDbVariableDictionary
350
3485
  0
DICTIONARY
  5
305A
330
3043
100
AcDbDictionary
280
     1
281
     1
  0
DICTIONARY
  5
D
102
{ACAD_REACTORS
330
C
102
}
330
C
100
AcDbDictionary
281
     1
  0
DICTIONARY
  5
33F0
102
{ACAD_REACTORS
330
C
102
}
330
C
100
AcDbDictionary
281
     1
  3
Model
350
33F2
  3
ﾚｲｱｳﾄ1
350
33F3
  0
DICTIONARY
  5
E
102
{ACAD_REACTORS
330
C
102
}
330
C
100
AcDbDictionary
281
     1
  3
STANDARD
350
1B
  0
DICTIONARY
  5
33F1
102
{ACAD_REACTORS
330
C
102
}
330
C
100
AcDbDictionary
281
     1
  0
ACDBDICTIONARYWDFLT
  5
33EE
102
{ACAD_REACTORS
330
C
102
}
330
C
100
AcDbDictionary
281
     1
  3
Normal
350
33EF
100
AcDbDictionaryWithDefault
340
33EF
  0
DICTIONARY
  5
3485
102
{ACAD_REACTORS
330
C
102
}
330
C
100
AcDbDictionary
281
     1
  3
DIMASSOC
350
3486
  0
LAYOUT
  5
33F2
102
{ACAD_REACTORS
330
33F0
102
}
330
33F0
100
AcDbPlotSettings
  1

  2
\\PC-1\RICOH imagio Neo 601
  4
A4
  6

 40
5.831416606903076
 41
4.942422866821289
 42
7.609405517578125
 43
5.789093017578125
 44
209.9733276367187
 45
296.9683227539062
 46
0.0
 47
0.0
 48
0.0
 49
0.0
140
0.0
141
0.0
142
1.0
143
15.11200395201325
 70
 11952
 72
     1
 73
     1
 74
     2
  7
monochrome.ctb
 75
     0
147
0.0661725607785312
148
0.0
149
0.0
100
AcDbLayout
  1
Model
 70
     1
 71
     0
 10
0.0
 20
0.0
 11
12.0
 21
9.0
 12
0.0
 22
0.0
 32
0.0
 14
0.0
 24
0.0
 34
0.0
 15
0.0
 25
0.0
 35
0.0
146
0.0
 13
0.0
 23
0.0
 33
0.0
 16
1.0
 26
0.0
 36
0.0
 17
0.0
 27
1.0
 37
0.0
 76
     0
330
18
  0
LAYOUT
  5
33F3
102
{ACAD_REACTORS
330
33F0
102
}
330
33F0
100
AcDbPlotSettings
  1

  2
\\SEKKEI-SERVER1\CAD-A4[2]
  4

  6

 40
0.0
 41
0.0
 42
0.0
 43
0.0
 44
0.0
 45
0.0
 46
0.0
 47
0.0
 48
0.0
 49
0.0
140
0.0
141
0.0
142
1.0
143
1.0
 70
   688
 72
     0
 73
     0
 74
     5
  7
monochrome.ctb
 75
    16
147
1.0
148
0.0
149
0.0
100
AcDbLayout
  1
ﾚｲｱｳﾄ1
 70
     0
 71
     1
 10
0.0
 20
0.0
 11
12.0
 21
9.0
 12
0.0
 22
0.0
 32
0.0
 14
1.000000000000000E+20
 24
1.000000000000000E+20
 34
1.000000000000000E+20
 15
-1.000000000000000E+20
 25
-1.000000000000000E+20
 35
-1.000000000000000E+20
146
0.0
 13
0.0
 23
0.0
 33
0.0
 16
1.0
 26
0.0
 36
0.0
 17
0.0
 27
1.0
 37
0.0
 76
     0
330
15
  0
MLINESTYLE
  5
1B
102
{ACAD_REACTORS
330
E
102
}
330
E
100
AcDbMlineStyle
  2
STANDARD
 70
     0
  3

 62
     0
 51
90.0
 52
90.0
 71
     2
 49
0.5
 62
   256
  6
BYLAYER
 49
-0.5
 62
   256
  6
BYLAYER
  0
ACDBPLACEHOLDER
  5
33EF
102
{ACAD_REACTORS
330
33EE
102
}
330
33EE
  0
DICTIONARYVAR
  5
3486
102
{ACAD_REACTORS
330
3485
102
}
330
3485
100
DictionaryVariables
280
     0
  1
1
  0
ENDSEC
  0
EOF
