  0
SECTION
  2
HEADER
  9
$ACADVER
  1
AC1015
  9
$ACADMAINTVER
 70
    10
  9
$DWGCODEPAGE
  3
ANSI_932
  9
$INSBASE
 10
0.0
 20
0.0
 30
0.0
  9
$EXTMIN
 10
119.4
 20
49.90000000000009
 30
0.0
  9
$EXTMAX
 10
4050.0
 20
2860.333333333335
 30
0.0
  9
$LIMMIN
 10
0.0
 20
0.0
  9
$LIMMAX
 10
4200.0
 20
2970.0
  9
$ORTHOMODE
 70
     0
  9
$REGENMODE
 70
     1
  9
$FILLMODE
 70
     1
  9
$QTEXTMODE
 70
     0
  9
$MIRRTEXT
 70
     0
  9
$LTSCALE
 40
10.0
  9
$ATTMODE
 70
     1
  9
$TEXTSIZE
 40
25.0
  9
$TRACEWID
 40
0.05
  9
$TEXTSTYLE
  7
M7
  9
$CLAYER
  8
1
  9
$CELTYPE
  6
CONTINUOUS
  9
$CECOLOR
 62
   256
  9
$CELTSCALE
 40
1.0
  9
$DISPSILH
 70
     0
  9
$DIMSCALE
 40
10.0
  9
$DIMASZ
 40
0.8
  9
$DIMEXO
 40
1.0
  9
$DIMDLI
 40
5.0
  9
$DIMRND
 40
0.0
  9
$DIMDLE
 40
0.0
  9
$DIMEXE
 40
1.5
  9
$DIMTP
 40
0.0
  9
$DIMTM
 40
0.0
  9
$DIMTXT
 40
2.5
  9
$DIMCEN
 40
1.0
  9
$DIMTSZ
 40
0.0
  9
$DIMTOL
 70
     0
  9
$DIMLIM
 70
     0
  9
$DIMTIH
 70
     0
  9
$DIMTOH
 70
     0
  9
$DIMSE1
 70
     0
  9
$DIMSE2
 70
     0
  9
$DIMTAD
 70
     1
  9
$DIMZIN
 70
     0
  9
$DIMBLK
  1

  9
$DIMASO
 70
     1
  9
$DIMSHO
 70
     0
  9
$DIMPOST
  1

  9
$DIMAPOST
  1

  9
$DIMALT
 70
     0
  9
$DIMALTD
 70
     2
  9
$DIMALTF
 40
25.4
  9
$DIMLFAC
 40
1.0
  9
$DIMTOFL
 70
     1
  9
$DIMTVP
 40
0.0
  9
$DIMTIX
 70
     0
  9
$DIMSOXD
 70
     0
  9
$DIMSAH
 70
     0
  9
$DIMBLK1
  1

  9
$DIMBLK2
  1

  9
$DIMSTYLE
  2
STANDARD
  9
$DIMCLRD
 70
     1
  9
$DIMCLRE
 70
     1
  9
$DIMCLRT
 70
     1
  9
$DIMTFAC
 40
0.8571428571428571
  9
$DIMGAP
 40
1.0
  9
$DIMJUST
 70
     0
  9
$DIMSD1
 70
     0
  9
$DIMSD2
 70
     0
  9
$DIMTOLJ
 70
     1
  9
$DIMTZIN
 70
     0
  9
$DIMALTZ
 70
     0
  9
$DIMALTTZ
 70
     0
  9
$DIMUPT
 70
     0
  9
$DIMDEC
 70
     0
  9
$DIMTDEC
 70
     0
  9
$DIMALTU
 70
     2
  9
$DIMALTTD
 70
     2
  9
$DIMTXSTY
  7
STANDARD
  9
$DIMAUNIT
 70
     0
  9
$DIMADEC
 70
     0
  9
$DIMALTRND
 40
0.0
  9
$DIMAZIN
 70
     0
  9
$DIMDSEP
 70
    46
  9
$DIMATFIT
 70
     3
  9
$DIMFRAC
 70
     0
  9
$DIMLDRBLK
  1

  9
$DIMLUNIT
 70
     2
  9
$DIMLWD
 70
    -2
  9
$DIMLWE
 70
    -2
  9
$DIMTMOVE
 70
     0
  9
$LUNITS
 70
     2
  9
$LUPREC
 70
     2
  9
$SKETCHINC
 40
0.1
  9
$FILLETRAD
 40
0.0
  9
$AUNITS
 70
     0
  9
$AUPREC
 70
     0
  9
$MENU
  1
A:\R13\WIN\ACAD
  9
$ELEVATION
 40
0.0
  9
$PELEVATION
 40
0.0
  9
$THICKNESS
 40
0.0
  9
$LIMCHECK
 70
     0
  9
$CHAMFERA
 40
0.0
  9
$CHAMFERB
 40
0.0
  9
$CHAMFERC
 40
0.0
  9
$CHAMFERD
 40
0.0
  9
$SKPOLY
 70
     0
  9
$TDCREATE
 40
2452079.839320139
  9
$TDUCREATE
 40
2452079.464320139
  9
$TDUPDATE
 40
2455363.564066111
  9
$TDUUPDATE
 40
2455363.189066111
  9
$TDINDWG
 40
1.7888340046
  9
$TDUSRTIMER
 40
1.7888336343
  9
$USRTIMER
 70
     1
  9
$ANGBASE
 50
0.0
  9
$ANGDIR
 70
     0
  9
$PDMODE
 70
    34
  9
$PDSIZE
 40
10.0
  9
$PLINEWID
 40
0.0
  9
$SPLFRAME
 70
     0
  9
$SPLINETYPE
 70
     6
  9
$SPLINESEGS
 70
     8
  9
$HANDSEED
  5
2D11
  9
$SURFTAB1
 70
     6
  9
$SURFTAB2
 70
     6
  9
$SURFTYPE
 70
     6
  9
$SURFU
 70
     6
  9
$SURFV
 70
     6
  9
$UCSBASE
  2

  9
$UCSNAME
  2

  9
$UCSORG
 10
0.0
 20
0.0
 30
0.0
  9
$UCSXDIR
 10
1.0
 20
0.0
 30
0.0
  9
$UCSYDIR
 10
0.0
 20
1.0
 30
0.0
  9
$UCSORTHOREF
  2

  9
$UCSORTHOVIEW
 70
     0
  9
$UCSORGTOP
 10
0.0
 20
0.0
 30
0.0
  9
$UCSORGBOTTOM
 10
0.0
 20
0.0
 30
0.0
  9
$UCSORGLEFT
 10
0.0
 20
0.0
 30
0.0
  9
$UCSORGRIGHT
 10
0.0
 20
0.0
 30
0.0
  9
$UCSORGFRONT
 10
0.0
 20
0.0
 30
0.0
  9
$UCSORGBACK
 10
0.0
 20
0.0
 30
0.0
  9
$PUCSBASE
  2

  9
$PUCSNAME
  2

  9
$PUCSORG
 10
0.0
 20
0.0
 30
0.0
  9
$PUCSXDIR
 10
1.0
 20
0.0
 30
0.0
  9
$PUCSYDIR
 10
0.0
 20
1.0
 30
0.0
  9
$PUCSORTHOREF
  2

  9
$PUCSORTHOVIEW
 70
     0
  9
$PUCSORGTOP
 10
0.0
 20
0.0
 30
0.0
  9
$PUCSORGBOTTOM
 10
0.0
 20
0.0
 30
0.0
  9
$PUCSORGLEFT
 10
0.0
 20
0.0
 30
0.0
  9
$PUCSORGRIGHT
 10
0.0
 20
0.0
 30
0.0
  9
$PUCSORGFRONT
 10
0.0
 20
0.0
 30
0.0
  9
$PUCSORGBACK
 10
0.0
 20
0.0
 30
0.0
  9
$USERI1
 70
     0
  9
$USERI2
 70
     0
  9
$USERI3
 70
     0
  9
$USERI4
 70
     0
  9
$USERI5
 70
     0
  9
$USERR1
 40
0.0
  9
$USERR2
 40
0.0
  9
$USERR3
 40
0.0
  9
$USERR4
 40
0.0
  9
$USERR5
 40
0.0
  9
$WORLDVIEW
 70
     1
  9
$SHADEDGE
 70
     3
  9
$SHADEDIF
 70
    70
  9
$TILEMODE
 70
     1
  9
$MAXACTVP
 70
    16
  9
$PINSBASE
 10
0.0
 20
0.0
 30
0.0
  9
$PLIMCHECK
 70
     0
  9
$PEXTMIN
 10
1.000000000000000E+20
 20
1.000000000000000E+20
 30
1.000000000000000E+20
  9
$PEXTMAX
 10
-1.000000000000000E+20
 20
-1.000000000000000E+20
 30
-1.000000000000000E+20
  9
$PLIMMIN
 10
0.0
 20
0.0
  9
$PLIMMAX
 10
12.0
 20
9.0
  9
$UNITMODE
 70
     0
  9
$VISRETAIN
 70
     0
  9
$PLINEGEN
 70
     0
  9
$PSLTSCALE
 70
     0
  9
$TREEDEPTH
 70
  3020
  9
$CMLSTYLE
  2
STANDARD
  9
$CMLJUST
 70
     0
  9
$CMLSCALE
 40
1.0
  9
$PROXYGRAPHICS
 70
     1
  9
$MEASUREMENT
 70
     0
  9
$CELWEIGHT
370
    -1
  9
$ENDCAPS
280
     0
  9
$JOINSTYLE
280
     0
  9
$LWDISPLAY
290
     0
  9
$INSUNITS
 70
     0
  9
$HYPERLINKBASE
  1

  9
$STYLESHEET
  1
MONOCHROME.CTB
  9
$XEDIT
290
     1
  9
$CEPSNTYPE
380
     0
  9
$PSTYLEMODE
290
     1
  9
$FINGERPRINTGUID
  2
{B5A1FB12-6520-4B5D-8E92-FC03700365CF}
  9
$VERSIONGUID
  2
{BFAC6DA1-7A5B-49D9-80EE-B9210442532E}
  9
$EXTNAMES
290
     1
  9
$PSVPSCALE
 40
0.0
  9
$OLESTARTUP
290
     0
  0
ENDSEC
  0
SECTION
  2
CLASSES
  0
CLASS
  1
IDBUFFER
  2
AcDbIdBuffer
  3
AutoCAD 2000
 90
    32768
280
     0
281
     0
  0
CLASS
  1
LWPOLYLINE
  2
AcDbPolyline
  3
AutoCAD 2000
 90
    32768
280
     0
281
     1
  0
CLASS
  1
HATCH
  2
AcDbHatch
  3
AutoCAD 2000
 90
    32768
280
     0
281
     1
  0
CLASS
  1
ACDBDICTIONARYWDFLT
  2
AcDbDictionaryWithDefault
  3
AutoCAD 2000
 90
        0
280
     0
281
     0
  0
CLASS
  1
ACDBPLACEHOLDER
  2
AcDbPlaceHolder
  3
AutoCAD 2000
 90
        0
280
     0
281
     0
  0
CLASS
  1
LAYOUT
  2
AcDbLayout
  3
AutoCAD 2000
 90
        0
280
     0
281
     0
  0
CLASS
  1
DICTIONARYVAR
  2
AcDbDictionaryVar
  3
AutoCAD 2000
 90
        0
280
     0
281
     0
  0
ENDSEC
  0
SECTION
  2
TABLES
  0
TABLE
  2
VPORT
  5
8
330
0
100
AcDbSymbolTable
 70
     2
  0
VPORT
  5
2D10
330
8
100
AcDbSymbolTableRecord
100
AcDbViewportTableRecord
  2
*Active
 70
     0
 10
0.0
 20
0.0
 11
1.0
 21
1.0
 12
2220.867578401848
 22
1354.941412172207
 13
0.0
 23
0.0
 14
12.5
 24
12.5
 15
50.0
 25
50.0
 16
0.0
 26
0.0
 36
1.0
 17
0.0
 27
0.0
 37
0.0
 40
3085.573281450802
 41
1.724358974358974
 42
50.0
 43
0.0
 44
0.0
 50
0.0
 51
0.0
 71
     0
 72
   500
 73
     1
 74
     0
 75
     1
 76
     1
 77
     0
 78
     0
281
     0
 65
     1
110
0.0
120
0.0
130
0.0
111
1.0
121
0.0
131
0.0
112
0.0
122
1.0
132
0.0
 79
     0
146
0.0
  0
ENDTAB
  0
TABLE
  2
LTYPE
  5
5
330
0
100
AcDbSymbolTable
 70
     9
  0
LTYPE
  5
12
330
5
100
AcDbSymbolTableRecord
100
AcDbLinetypeTableRecord
  2
BYBLOCK
 70
     0
  3

 72
    65
 73
     0
 40
0.0
  0
LTYPE
  5
13
330
5
100
AcDbSymbolTableRecord
100
AcDbLinetypeTableRecord
  2
BYLAYER
 70
     0
  3

 72
    65
 73
     0
 40
0.0
  0
LTYPE
  5
14
330
5
100
AcDbSymbolTableRecord
100
AcDbLinetypeTableRecord
  2
CONTINUOUS
 70
     0
  3
Solid line
 72
    65
 73
     0
 40
0.0
  0
LTYPE
  5
2A
330
5
100
AcDbSymbolTableRecord
100
AcDbLinetypeTableRecord
  2
DASHED
 70
     0
  3
___  ___  ___  ___  ___  ___  ___  ___
 72
    65
 73
     2
 40
5.0
 49
3.0
 74
     0
 49
-2.0
 74
     0
  0
LTYPE
  5
2B
330
5
100
AcDbSymbolTableRecord
100
AcDbLinetypeTableRecord
  2
HIDDEN
 70
     0
  3
__  __  __  __  __  __  __  __  __  __
 72
    65
 73
     2
 40
2.0
 49
1.0
 74
     0
 49
-1.0
 74
     0
  0
LTYPE
  5
2C
330
5
100
AcDbSymbolTableRecord
100
AcDbLinetypeTableRecord
  2
CENTER
 70
     0
  3
_____ _ _____ _ _____ _ _____ _ _____ _ _____
 72
    65
 73
     4
 40
17.0
 49
14.0
 74
     0
 49
-1.0
 74
     0
 49
1.0
 74
     0
 49
-1.0
 74
     0
  0
LTYPE
  5
2D
330
5
100
AcDbSymbolTableRecord
100
AcDbLinetypeTableRecord
  2
PHANTOM
 70
     0
  3
_____ _ _ _____ _ _ _____ _ _ _____ _ _ _____
 72
    65
 73
     6
 40
19.0
 49
14.0
 74
     0
 49
-1.0
 74
     0
 49
1.0
 74
     0
 49
-1.0
 74
     0
 49
1.0
 74
     0
 49
-1.0
 74
     0
  0
LTYPE
  5
2E
330
5
100
AcDbSymbolTableRecord
100
AcDbLinetypeTableRecord
  2
DOT
 70
     0
  3
_ _ _ _ _ _ _ _ _ _ _ _ _ _ _ _ _ _ _ _ _ _ 
 72
    65
 73
     2
 40
1.0
 49
0.5
 74
     0
 49
-0.5
 74
     0
  0
LTYPE
  5
2F
330
5
100
AcDbSymbolTableRecord
100
AcDbLinetypeTableRecord
  2
DASHDOT
 70
     0
  3
__ . __ . __ . __ . __ . __ . __ . __ . __ . __
 72
    65
 73
     4
 40
8.0
 49
5.0
 74
     0
 49
-1.0
 74
     0
 49
1.0
 74
     0
 49
-1.0
 74
     0
  0
LTYPE
  5
30
330
5
100
AcDbSymbolTableRecord
100
AcDbLinetypeTableRecord
  2
DIVIDE
 70
     0
  3
__ . . __ . . __ . . __ . . __ . . __ . . __
 72
    65
 73
     6
 40
10.0
 49
5.0
 74
     0
 49
-1.0
 74
     0
 49
1.0
 74
     0
 49
-1.0
 74
     0
 49
1.0
 74
     0
 49
-1.0
 74
     0
  0
LTYPE
  5
31
330
5
100
AcDbSymbolTableRecord
100
AcDbLinetypeTableRecord
  2
BORDER
 70
     0
  3
__ __ . __ __ . __ __ . __ __ . __ __ . __ __
 72
    65
 73
     6
 40
22.5
 49
5.0
 74
     0
 49
-2.5
 74
     0
 49
5.0
 74
     0
 49
-2.5
 74
     0
 49
5.0
 74
     0
 49
-2.5
 74
     0
  0
ENDTAB
  0
TABLE
  2
LAYER
  5
2
330
0
100
AcDbSymbolTable
 70
    21
  0
LAYER
  5
F
330
2
100
AcDbSymbolTableRecord
100
AcDbLayerTableRecord
  2
0
 70
     0
 62
     7
  6
CONTINUOUS
370
    -3
390
2547
  0
LAYER
  5
34
330
2
100
AcDbSymbolTableRecord
100
AcDbLayerTableRecord
  2
1
 70
     0
 62
     7
  6
CONTINUOUS
370
    -3
390
2547
  0
LAYER
  5
35
330
2
100
AcDbSymbolTableRecord
100
AcDbLayerTableRecord
  2
TEN
 70
     0
 62
    -8
  6
DASHED
370
    -3
390
2547
  0
LAYER
  5
36
330
2
100
AcDbSymbolTableRecord
100
AcDbLayerTableRecord
  2
HOJO
 70
     0
 62
     5
  6
CONTINUOUS
370
    -3
390
2547
  0
LAYER
  5
37
330
2
100
AcDbSymbolTableRecord
100
AcDbLayerTableRecord
  2
SIN-JIS
 70
     0
 62
     2
  6
CONTINUOUS
370
    -3
390
2547
  0
LAYER
  5
38
330
2
100
AcDbSymbolTableRecord
100
AcDbLayerTableRecord
  2
KYU-JIS
 70
     0
 62
    -3
  6
CONTINUOUS
370
    -3
390
2547
  0
LAYER
  5
39
330
2
100
AcDbSymbolTableRecord
100
AcDbLayerTableRecord
  2
JIS
 70
     0
 62
     6
  6
CONTINUOUS
370
    -3
390
2547
  0
LAYER
  5
3A
330
2
100
AcDbSymbolTableRecord
100
AcDbLayerTableRecord
  2
ZOKUSEI
 70
     0
 62
     4
  6
CONTINUOUS
370
    -3
390
2547
  0
LAYER
  5
3B
330
2
100
AcDbSymbolTableRecord
100
AcDbLayerTableRecord
  2
KUROMARU
 70
     0
 62
     1
  6
CONTINUOUS
370
    -3
390
2547
  0
LAYER
  5
3C
330
2
100
AcDbSymbolTableRecord
100
AcDbLayerTableRecord
  2
SENBAN
 70
     0
 62
     6
  6
CONTINUOUS
370
    -3
390
2547
  0
LAYER
  5
3D
330
2
100
AcDbSymbolTableRecord
100
AcDbLayerTableRecord
  2
GAIKEI1
 70
     0
 62
     2
  6
CONTINUOUS
370
    -3
390
2547
  0
LAYER
  5
3E
330
2
100
AcDbSymbolTableRecord
100
AcDbLayerTableRecord
  2
GAIKEI2
 70
     0
 62
     3
  6
CONTINUOUS
370
    -3
390
2547
  0
LAYER
  5
3F
330
2
100
AcDbSymbolTableRecord
100
AcDbLayerTableRecord
  2
GAIKEI3
 70
     0
 62
     4
  6
CONTINUOUS
370
    -3
390
2547
  0
LAYER
  5
40
330
2
100
AcDbSymbolTableRecord
100
AcDbLayerTableRecord
  2
WAKU
 70
     0
 62
     3
  6
CONTINUOUS
370
    -3
390
2547
  0
LAYER
  5
41
330
2
100
AcDbSymbolTableRecord
100
AcDbLayerTableRecord
  2
MEMORI
 70
     0
 62
     7
  6
CONTINUOUS
370
    -3
390
2547
  0
LAYER
  5
55C
330
2
100
AcDbSymbolTableRecord
100
AcDbLayerTableRecord
  2
DEFPOINTS
 70
     0
 62
     7
  6
CONTINUOUS
290
     0
370
    -3
390
2547
  0
LAYER
  5
203B
330
2
100
AcDbSymbolTableRecord
100
AcDbLayerTableRecord
  2
C-CIRCUIT
 70
     0
 62
     7
  6
CONTINUOUS
370
    -3
390
2547
  0
LAYER
  5
20AA
330
2
100
AcDbSymbolTableRecord
100
AcDbLayerTableRecord
  2
LAY-1
 70
     0
 62
     7
  6
CONTINUOUS
370
    -3
390
2547
  0
LAYER
  5
216E
330
2
100
AcDbSymbolTableRecord
100
AcDbLayerTableRecord
  2
WAKU-MOJI
 70
     0
 62
     7
  6
CONTINUOUS
370
    -3
390
2547
  0
LAYER
  5
2560
330
2
100
AcDbSymbolTableRecord
100
AcDbLayerTableRecord
  2
CONTROL-CIRCUIT
 70
     0
 62
     7
  6
CONTINUOUS
370
    -3
390
2547
  0
LAYER
  5
2561
330
2
100
AcDbSymbolTableRecord
100
AcDbLayerTableRecord
  2
MAIN-CIRCUIT
 70
     0
 62
     7
  6
CONTINUOUS
370
    -3
390
2547
  0
ENDTAB
  0
TABLE
  2
STYLE
  5
3
330
0
100
AcDbSymbolTable
 70
    17
  0
STYLE
  5
10
330
3
100
AcDbSymbolTableRecord
100
AcDbTextStyleTableRecord
  2
STANDARD
 70
     0
 40
0.0
 41
0.8
 50
0.0
 71
     0
 42
30.0
  3
monotxt
  4
EXTFONT.SHX
  0
STYLE
  5
1C
330
3
100
AcDbSymbolTableRecord
100
AcDbTextStyleTableRecord
  2
M4
 70
     0
 40
0.0
 41
0.4
 50
0.0
 71
     0
 42
30.0
  3
monotxt
  4
EXTFONT.SHX
  0
STYLE
  5
1D
330
3
100
AcDbSymbolTableRecord
100
AcDbTextStyleTableRecord
  2
M5
 70
     0
 40
0.0
 41
0.5
 50
0.0
 71
     0
 42
40.0
  3
monotxt
  4
EXTFONT.SHX
  0
STYLE
  5
1E
330
3
100
AcDbSymbolTableRecord
100
AcDbTextStyleTableRecord
  2
M6
 70
     0
 40
0.0
 41
0.6
 50
0.0
 71
     0
 42
30.0
  3
monotxt
  4
EXTFONT.SHX
  0
STYLE
  5
1F
330
3
100
AcDbSymbolTableRecord
100
AcDbTextStyleTableRecord
  2
M7
 70
     0
 40
0.0
 41
0.7
 50
0.0
 71
     0
 42
25.0
  3
MONOTXT
  4
EXTFONT.SHX
  0
STYLE
  5
20
330
3
100
AcDbSymbolTableRecord
100
AcDbTextStyleTableRecord
  2
M8
 70
     0
 40
0.0
 41
0.8
 50
0.0
 71
     0
 42
30.0
  3
ROMANS
  4
EXTFONT
  0
STYLE
  5
21
330
3
100
AcDbSymbolTableRecord
100
AcDbTextStyleTableRecord
  2
M9
 70
     0
 40
0.0
 41
0.9
 50
0.0
 71
     0
 42
30.0
  3
monotxt
  4
EXTFONT.SHX
  0
STYLE
  5
22
330
3
100
AcDbSymbolTableRecord
100
AcDbTextStyleTableRecord
  2
M0
 70
     0
 40
0.0
 41
1.0
 50
0.0
 71
     0
 42
30.0
  3
monotxt
  4
EXTFONT.SHX
  0
STYLE
  5
23
330
3
100
AcDbSymbolTableRecord
100
AcDbTextStyleTableRecord
  2
TM5
 70
     4
 40
0.0
 41
0.5
 50
0.0
 71
     0
 42
30.0
  3
monotxt
  4
EXTFONT.SHX
  0
STYLE
  5
24
330
3
100
AcDbSymbolTableRecord
100
AcDbTextStyleTableRecord
  2
TM8
 70
     4
 40
0.0
 41
0.8
 50
0.0
 71
     0
 42
30.0
  3
monotxt
  4
EXTFONT.SHX
  0
STYLE
  5
25
330
3
100
AcDbSymbolTableRecord
100
AcDbTextStyleTableRecord
  2
TM0
 70
     4
 40
0.0
 41
1.0
 50
0.0
 71
     0
 42
30.0
  3
monotxt
  4
EXTFONT.SHX
  0
STYLE
  5
26
330
3
100
AcDbSymbolTableRecord
100
AcDbTextStyleTableRecord
  2
TM4
 70
     4
 40
0.0
 41
0.4
 50
0.0
 71
     0
 42
60.0
  3
MONOTXT
  4
EXTFONT.SHX
  0
STYLE
  5
27
330
3
100
AcDbSymbolTableRecord
100
AcDbTextStyleTableRecord
  2
TM6
 70
     4
 40
0.0
 41
0.6
 50
0.0
 71
     0
 42
60.0
  3
MONOTXT
  4
EXTFONT.SHX
  0
STYLE
  5
28
330
3
100
AcDbSymbolTableRecord
100
AcDbTextStyleTableRecord
  2
TM7
 70
     4
 40
0.0
 41
0.7
 50
0.0
 71
     0
 42
20.0
  3
MONOTXT
  4
EXTFONT.SHX
  0
STYLE
  5
29
330
3
100
AcDbSymbolTableRecord
100
AcDbTextStyleTableRecord
  2
TM9
 70
     4
 40
0.0
 41
0.8
 50
0.0
 71
     0
 42
60.0
  3
MONOTXT
  4
EXTFONT.SHX
  0
STYLE
  5
2582
330
3
100
AcDbSymbolTableRecord
100
AcDbTextStyleTableRecord
  2
EXCADSTD
 70
     0
 40
0.0
 41
1.0
 50
0.0
 71
     0
 42
0.2
  3
monotxt
  4
bigfont
  0
STYLE
  5
25A6
330
3
100
AcDbSymbolTableRecord
100
AcDbTextStyleTableRecord
  2
EXCADVERT
 70
     4
 40
0.0
 41
1.0
 50
0.0
 71
     0
 42
0.286885
  3
monotxt
  4
bigfont
  0
ENDTAB
  0
TABLE
  2
VIEW
  5
6
330
0
100
AcDbSymbolTable
 70
     0
  0
ENDTAB
  0
TABLE
  2
UCS
  5
7
330
0
100
AcDbSymbolTable
 70
     0
  0
ENDTAB
  0
TABLE
  2
APPID
  5
9
330
0
100
AcDbSymbolTable
 70
     2
  0
APPID
  5
11
330
9
100
AcDbSymbolTableRecord
100
AcDbRegAppTableRecord
  2
ACAD
 70
     0
  0
APPID
  5
1FCE
330
9
100
AcDbSymbolTableRecord
100
AcDbRegAppTableRecord
  2
UBOX
 70
     0
  0
ENDTAB
  0
TABLE
  2
DIMSTYLE
  5
A
330
0
100
AcDbSymbolTable
 70
     1
100
AcDbDimStyleTable
 71
     0
  0
DIMSTYLE
105
46
330
A
100
AcDbSymbolTableRecord
100
AcDbDimStyleTableRecord
  2
STANDARD
 70
     0
 40
10.0
 41
0.8
 42
1.0
 43
5.0
 44
1.5
 73
     0
 74
     0
 77
     1
140
3.5
141
1.0
146
0.8571428571428571
147
1.0
172
     1
176
     1
177
     1
178
     1
271
     0
272
     0
340
10
  0
ENDTAB
  0
TABLE
  2
BLOCK_RECORD
  5
1
330
0
100
AcDbSymbolTable
 70
    20
  0
BLOCK_RECORD
  5
18
330
1
100
AcDbSymbolTableRecord
100
AcDbBlockTableRecord
  2
*MODEL_SPACE
340
254A
  0
BLOCK_RECORD
  5
15
330
1
100
AcDbSymbolTableRecord
100
AcDbBlockTableRecord
  2
*PAPER_SPACE
340
254B
  0
BLOCK_RECORD
  5
2004
102
{ACAD_XDICTIONARY
360
201C
102
}
330
1
100
AcDbSymbolTableRecord
100
AcDbBlockTableRecord
  2
3408105
340
0
  0
BLOCK_RECORD
  5
2088
330
1
100
AcDbSymbolTableRecord
100
AcDbBlockTableRecord
  2
AO02
340
0
102
{BLKREFS
331
20C3
102
}
  0
BLOCK_RECORD
  5
2099
330
1
100
AcDbSymbolTableRecord
100
AcDbBlockTableRecord
  2
AM01
340
0
102
{BLKREFS
331
20CF
102
}
  0
BLOCK_RECORD
  5
209F
330
1
100
AcDbSymbolTableRecord
100
AcDbBlockTableRecord
  2
AQ02
340
0
102
{BLKREFS
331
20C8
102
}
  0
BLOCK_RECORD
  5
20D7
330
1
100
AcDbSymbolTableRecord
100
AcDbBlockTableRecord
  2
AP01
340
0
  0
BLOCK_RECORD
  5
20FA
330
1
100
AcDbSymbolTableRecord
100
AcDbBlockTableRecord
  2
AP02
340
0
102
{BLKREFS
331
2A8D
331
2A96
102
}
  0
BLOCK_RECORD
  5
211F
330
1
100
AcDbSymbolTableRecord
100
AcDbBlockTableRecord
  2
AP04
340
0
102
{BLKREFS
331
29FD
331
2A04
331
2A0B
331
2A12
102
}
  0
BLOCK_RECORD
  5
2143
330
1
100
AcDbSymbolTableRecord
100
AcDbBlockTableRecord
  2
AP06
340
0
102
{BLKREFS
331
2A1D
331
2A26
331
2A2F
331
2A38
102
}
  0
BLOCK_RECORD
  5
2162
330
1
100
AcDbSymbolTableRecord
100
AcDbBlockTableRecord
  2
AL01
340
0
102
{BLKREFS
331
2168
331
216D
331
21D2
331
21F1
331
21F2
331
2245
102
}
  0
BLOCK_RECORD
  5
216F
330
1
100
AcDbSymbolTableRecord
100
AcDbBlockTableRecord
  2
AP09
340
0
  0
BLOCK_RECORD
  5
2214
330
1
100
AcDbSymbolTableRecord
100
AcDbBlockTableRecord
  2
AJ03
340
0
  0
BLOCK_RECORD
  5
22A6
330
1
100
AcDbSymbolTableRecord
100
AcDbBlockTableRecord
  2
P10
340
0
102
{BLKREFS
331
22AD
102
}
  0
BLOCK_RECORD
  5
22AC
330
1
100
AcDbSymbolTableRecord
100
AcDbBlockTableRecord
  2
AN07
340
0
102
{BLKREFS
331
2B9F
331
2BDB
102
}
  0
BLOCK_RECORD
  5
26BB
330
1
100
AcDbSymbolTableRecord
100
AcDbBlockTableRecord
  2
UPARO1
340
0
  0
BLOCK_RECORD
  5
26C0
330
1
100
AcDbSymbolTableRecord
100
AcDbBlockTableRecord
  2
TB-EU
340
0
102
{BLKREFS
331
2B98
331
2BA1
331
2BC9
331
2C05
331
2C00
331
2C09
102
}
  0
BLOCK_RECORD
  5
26C5
330
1
100
AcDbSymbolTableRecord
100
AcDbBlockTableRecord
  2
TB-ED
340
0
102
{BLKREFS
331
2BBA
331
2BEE
102
}
  0
BLOCK_RECORD
  5
26CA
330
1
100
AcDbSymbolTableRecord
100
AcDbBlockTableRecord
  2
AM03
340
0
102
{BLKREFS
331
2B9A
331
2BDA
102
}
  0
BLOCK_RECORD
  5
26CF
330
1
100
AcDbSymbolTableRecord
100
AcDbBlockTableRecord
  2
AL03
340
0
102
{BLKREFS
331
2BA0
331
2BFF
102
}
  0
BLOCK_RECORD
  5
26D4
330
1
100
AcDbSymbolTableRecord
100
AcDbBlockTableRecord
  2
AY03
340
0
  0
BLOCK_RECORD
  5
26E2
330
1
100
AcDbSymbolTableRecord
100
AcDbBlockTableRecord
  2
AY02
340
0
  0
ENDTAB
  0
ENDSEC
  0
SECTION
  2
BLOCKS
  0
BLOCK
  5
44
330
18
100
AcDbEntity
  8
0
100
AcDbBlockBegin
  2
*MODEL_SPACE
 70
     0
 10
0.0
 20
0.0
 30
0.0
  3
*MODEL_SPACE
  1

  0
ENDBLK
  5
45
330
18
100
AcDbEntity
  8
0
100
AcDbBlockEnd
  0
BLOCK
  5
42
330
15
100
AcDbEntity
 67
     1
  8
0
100
AcDbBlockBegin
  2
*PAPER_SPACE
 70
     0
 10
0.0
 20
0.0
 30
0.0
  3
*PAPER_SPACE
  1

  0
ENDBLK
  5
43
330
15
100
AcDbEntity
 67
     1
  8
0
100
AcDbBlockEnd
  0
BLOCK
  5
2005
330
2004
100
AcDbEntity
  8
0
100
AcDbBlockBegin
  2
3408105
 70
     0
 10
0.0
 20
0.0
 30
0.0
  3
3408105
  1
C:\Zumen\8160628島根小学校改築電気設備工事\1P-体育館・1L-体育館・1T-体育館\3408105.dwg
  0
POINT
  5
2564
330
2004
100
AcDbEntity
  8
TEN
  6
Continuous
 62
     4
100
AcDbPoint
 10
3782.0
 20
103.0
 30
0.0
  0
POINT
  5
2565
330
2004
100
AcDbEntity
  8
TEN
  6
Continuous
 62
     4
100
AcDbPoint
 10
3781.0
 20
215.0
 30
0.0
  0
POINT
  5
2566
330
2004
100
AcDbEntity
  8
TEN
  6
Continuous
 62
     4
100
AcDbPoint
 10
4018.0
 20
80.12500000000001
 30
0.0
  0
POINT
  5
2567
330
2004
100
AcDbEntity
  8
TEN
  6
Continuous
 62
     4
100
AcDbPoint
 10
3990.0
 20
124.375
 30
0.0
  0
POINT
  5
2568
330
2004
100
AcDbEntity
  8
TEN
  6
Continuous
 62
     4
100
AcDbPoint
 10
1652.2
 20
187.3999999999999
 30
0.0
  0
POINT
  5
2569
330
2004
100
AcDbEntity
  8
TEN
  6
Continuous
 62
     4
100
AcDbPoint
 10
1710.0
 20
187.1
 30
0.0
  0
POINT
  5
256A
330
2004
100
AcDbEntity
  8
TEN
  6
Continuous
 62
     4
100
AcDbPoint
 10
1767.8
 20
186.8
 30
0.0
  0
LWPOLYLINE
  5
256B
102
{ACAD_REACTORS
330
25D0
102
}
330
2004
100
AcDbEntity
  8
WAKU
  6
Continuous
 62
     7
100
AcDbPolyline
 90
       70
 70
     1
 43
0.0
 10
1869.39
 20
108.4624190070458
 10
1868.950466641679
 20
107.893481361466
 10
1868.195926382809
 20
107.118483114415
 10
1867.36244213045
 20
106.4822917315619
 10
1866.466236707499
 20
105.9972899545159
 10
1865.524753733089
 20
105.6729177911879
 10
1864.55631810239
 20
105.5154887767669
 10
1863.579779313388
 20
105.5280670879479
 10
1862.61414458282
 20
105.71040790221
 10
1861.6782088923
 20
106.058962163013
 10
1860.79018916545
 20
106.5669456581459
 10
1859.967369696138
 20
107.224471066698
 10
1859.2257657294
 20
108.018740404517
 10
1858.57981174287
 20
108.934294122408
 10
1858.04208049616
 20
109.9533120086809
 10
1857.6230383163
 20
111.055960039295
 10
1857.33084138268
 20
112.220776424578
 10
1857.17117697625
 20
113.425089338548
 10
1857.14715278305
 20
114.6454582002218
 10
1857.259236406689
 20
115.858129917856
 10
1857.50524626691
 20
117.0395012158589
 10
1857.880394061639
 20
118.1665780457059
 10
1858.37737796575
 20
119.2174231389339
 10
1858.98652475288
 20
120.171582991124
 10
1859.695978073699
 20
121.0104859660919
 10
1860.49192922631
 20
121.717803771669
 10
1861.35888592692
 20
122.2797692713309
 10
1862.279973849489
 20
122.6854444458538
 10
1863.23726506533
 20
122.9269332894139
 10
1864.21212698983
 20
122.999535496362
 10
1865.18558504451
 20
122.9018379473209
 10
1866.138691975639
 20
122.6357422139559
 10
1867.05289664094
 20
122.2064275470369
 10
1867.910405086499
 20
121.622250068216
 10
1868.694526885819
 20
120.894580127628
 10
1869.39
 20
120.0375809929539
 10
1869.39
 20
124.8588111963589
 10
1868.15817603983
 20
125.5675242732629
 10
1866.85759997358
 20
126.0825913720409
 10
1865.51052501831
 20
126.3951995518288
 10
1864.14
 20
126.5
 10
1862.769474981689
 20
126.3951995518288
 10
1861.422400026419
 20
126.0825913720409
 10
1860.121823960168
 20
125.5675242732629
 10
1858.89
 20
124.8588111963589
 10
1857.74800499541
 20
123.968578418568
 10
1856.71537879754
 20
122.912058069535
 10
1855.809789926939
 20
121.7073275053569
 10
1855.04673326026
 20
120.375
 10
1854.439264908629
 20
118.9378720464719
 10
1853.99777882397
 20
117.4205333025059
 10
1853.72982895558
 20
115.8489458546959
 10
1853.64
 20
114.25
 10
1853.72982895558
 20
112.6510541453049
 10
1853.99777882397
 20
111.0794666974939
 10
1854.439264908629
 20
109.5621279535279
 10
1855.04673326026
 20
108.125
 10
1855.809789926939
 20
106.7926724946429
 10
1856.71537879754
 20
105.5879419304649
 10
1857.74800499541
 20
104.5314215814318
 10
1858.89
 20
103.6411888036409
 10
1860.121823960168
 20
102.9324757267369
 10
1861.422400026419
 20
102.4174086279589
 10
1862.769474981689
 20
102.104800448171
 10
1864.14
 20
102.0
 10
1865.51052501831
 20
102.104800448171
 10
1866.85759997358
 20
102.4174086279589
 10
1868.15817603983
 20
102.9324757267369
 10
1869.39
 20
103.6411888036409
 10
1869.39
 20
103.6411888036409
  0
LWPOLYLINE
  5
256C
102
{ACAD_REACTORS
330
25D1
102
}
330
2004
100
AcDbEntity
  8
WAKU
  6
Continuous
 62
     7
100
AcDbPolyline
 90
       46
 70
     0
 43
0.0
 10
1932.25
 20
114.25
 10
1932.19890736089
 20
115.4677646334009
 10
1932.04662390368
 20
116.6618268633989
 10
1931.79611365262
 20
117.8089456269129
 10
1931.45225250482
 20
118.8867935620409
 10
1931.02173332638
 20
119.8743915847568
 10
1930.512935683379
 20
120.7525172229269
 10
1929.935762743219
 20
121.504078759857
 10
1929.301448520639
 20
122.114447905118
 10
1928.62233922047
 20
122.571744517583
 10
1927.911652932749
 20
122.8670678388569
 10
1927.183222357689
 20
122.9946697364169
 10
1926.45122556785
 20
122.9520665844719
 10
1925.729910048099
 20
122.740087604915
 10
1925.03331538457
 20
122.3628587274589
 10
1924.375
 20
121.8277222831138
 10
1923.767777254538
 20
121.145094094059
 10
1923.223466048219
 20
120.328260741516
 10
1922.752660779529
 20
119.3931209575589
 10
1922.36452513749
 20
118.357876174377
 10
1922.066613740869
 20
117.2426762540998
 10
1921.864725096148
 20
116.0692272946549
 10
1921.762788736138
 20
114.8603691452608
 10
1921.762788736138
 20
113.6396308547388
 10
1921.864725096148
 20
112.430772705345
 10
1922.066613740869
 20
111.2573237458999
 10
1922.36452513749
 20
110.142123825624
 10
1922.752660779529
 20
109.106879042441
 10
1923.223466048219
 20
108.171739258484
 10
1923.767777254538
 20
107.3549059059409
 10
1924.375
 20
106.6722777168859
 10
1925.03331538457
 20
106.137141272541
 10
1925.729910048099
 20
105.7599123950849
 10
1926.45122556785
 20
105.5479334155279
 10
1927.183222357689
 20
105.5053302635828
 10
1927.911652932749
 20
105.632932161143
 10
1928.62233922047
 20
105.9282554824169
 10
1929.301448520639
 20
106.3855520948819
 10
1929.935762743219
 20
106.9959212401429
 10
1930.512935683379
 20
107.747482777073
 10
1931.02173332638
 20
108.625608415243
 10
1931.45225250482
 20
109.6132064379599
 10
1931.79611365262
 20
110.6910543730869
 10
1932.04662390368
 20
111.838173136601
 10
1932.19890736089
 20
113.032235366599
 10
1932.25
 20
114.25
  0
LWPOLYLINE
  5
256D
102
{ACAD_REACTORS
330
25D1
102
}
330
2004
100
AcDbEntity
  8
WAKU
  6
Continuous
 62
     7
100
AcDbPolyline
 90
       49
 70
     0
 43
0.0
 10
1927.0
 20
126.5
 10
1925.85789581807
 20
126.3951995518288
 10
1924.73533335535
 20
126.0825913720409
 10
1923.65151996681
 20
125.5675242732629
 10
1922.625
 20
124.8588111963589
 10
1921.67333749617
 20
123.968578418568
 10
1920.81281566462
 20
122.912058069535
 10
1920.05815827245
 20
121.7073275053569
 10
1919.42227771689
 20
120.375
 10
1918.91605409053
 20
118.9378720464719
 10
1918.54814901997
 20
117.4205333025059
 10
1918.324857462978
 20
115.8489458546959
 10
1918.25
 20
114.25
 10
1918.324857462978
 20
112.6510541453038
 10
1918.54814901997
 20
111.0794666974939
 10
1918.91605409053
 20
109.5621279535279
 10
1919.42227771689
 20
108.125
 10
1920.05815827245
 20
106.7926724946429
 10
1920.81281566462
 20
105.5879419304649
 10
1921.67333749617
 20
104.5314215814318
 10
1922.625
 20
103.6411888036409
 10
1923.65151996681
 20
102.9324757267369
 10
1924.73533335535
 20
102.4174086279589
 10
1925.85789581807
 20
102.104800448171
 10
1927.0
 20
102.0
 10
1928.142104181929
 20
102.104800448171
 10
1929.264666644649
 20
102.4174086279589
 10
1930.348480033189
 20
102.9324757267369
 10
1931.375
 20
103.6411888036409
 10
1932.326662503829
 20
104.5314215814318
 10
1933.18718433538
 20
105.5879419304649
 10
1933.94184172755
 20
106.7926724946429
 10
1934.577722283109
 20
108.125
 10
1935.08394590947
 20
109.5621279535279
 10
1935.45185098003
 20
111.0794666974939
 10
1935.67514253702
 20
112.6510541453038
 10
1935.75
 20
114.25
 10
1935.67514253702
 20
115.8489458546959
 10
1935.45185098003
 20
117.4205333025059
 10
1935.08394590947
 20
118.9378720464719
 10
1934.577722283109
 20
120.375
 10
1933.94184172755
 20
121.7073275053569
 10
1933.18718433538
 20
122.912058069535
 10
1932.326662503829
 20
123.968578418568
 10
1931.375
 20
124.8588111963589
 10
1930.348480033189
 20
125.5675242732629
 10
1929.264666644649
 20
126.0825913720409
 10
1928.142104181929
 20
126.3951995518288
 10
1927.0
 20
126.5
  0
LWPOLYLINE
  5
256E
102
{ACAD_REACTORS
330
25D1
102
}
330
2004
100
AcDbEntity
  8
WAKU
  6
Continuous
 62
     7
100
AcDbPolyline
 90
       11
 70
     0
 43
0.0
 10
1937.5
 20
102.0
 10
1941.0
 20
102.0
 10
1941.0
 20
119.5
 10
1951.5
 20
102.0
 10
1955.0
 20
102.0
 10
1955.0
 20
126.5
 10
1951.5
 20
126.5
 10
1951.5
 20
109.0
 10
1941.0
 20
126.5
 10
1937.5
 20
126.5
 10
1937.5
 20
102.0
  0
LWPOLYLINE
  5
256F
102
{ACAD_REACTORS
330
25D1
102
}
330
2004
100
AcDbEntity
  8
WAKU
  6
Continuous
 62
     7
100
AcDbPolyline
 90
        5
 70
     0
 43
0.0
 10
1913.0
 20
126.5
 10
1913.0
 20
102.0
 10
1916.5
 20
102.0
 10
1916.5
 20
126.5
 10
1913.0
 20
126.5
  0
LWPOLYLINE
  5
2570
102
{ACAD_REACTORS
330
25D1
102
}
330
2004
100
AcDbEntity
  8
WAKU
  6
Continuous
 62
     7
100
AcDbPolyline
 90
        7
 70
     0
 43
0.0
 10
1902.5
 20
126.5
 10
1902.5
 20
105.4999999999999
 10
1909.499999999999
 20
105.4999999999999
 10
1909.499999999999
 20
102.0
 10
1899.0
 20
102.0
 10
1899.0
 20
126.5
 10
1902.5
 20
126.5
  0
LWPOLYLINE
  5
2571
102
{ACAD_REACTORS
330
25D1
102
}
330
2004
100
AcDbEntity
  8
WAKU
  6
Continuous
 62
     7
100
AcDbPolyline
 90
       13
 70
     0
 43
0.0
 10
1888.5
 20
102.0
 10
1874.5
 20
102.0
 10
1874.5
 20
126.5
 10
1888.5
 20
126.5
 10
1888.5
 20
123.0
 10
1878.0
 20
123.0
 10
1878.0
 20
116.0
 10
1888.5
 20
116.0
 10
1888.5
 20
112.5
 10
1878.0
 20
112.5
 10
1878.0
 20
105.4999999999999
 10
1888.5
 20
105.4999999999999
 10
1888.5
 20
102.0
  0
POINT
  5
2572
330
2004
100
AcDbEntity
  8
TEN
  6
Continuous
 62
     4
100
AcDbPoint
 10
1652.2
 20
77.30000000000003
 30
0.0
  0
POINT
  5
2573
330
2004
100
AcDbEntity
  8
TEN
  6
Continuous
 62
     4
100
AcDbPoint
 10
1710.0
 20
77.0
 30
0.0
  0
POINT
  5
2574
330
2004
100
AcDbEntity
  8
TEN
  6
Continuous
 62
     4
100
AcDbPoint
 10
1767.8
 20
76.7
 30
0.0
  0
CIRCLE
  5
2575
330
2004
100
AcDbEntity
  8
WAKU
  6
Continuous
 62
     2
100
AcDbCircle
 10
1740.0
 20
69.5
 30
0.0
 40
3.0
  0
CIRCLE
  5
2576
330
2004
100
AcDbEntity
  8
WAKU
  6
Continuous
 62
     2
100
AcDbCircle
 10
1680.0
 20
69.5
 30
0.0
 40
3.0
  0
POINT
  5
2577
330
2004
100
AcDbEntity
  8
TEN
  6
Continuous
 62
     4
100
AcDbPoint
 10
3459.0
 20
104.0
 30
0.0
  0
POINT
  5
2578
330
2004
100
AcDbEntity
  8
TEN
  6
Continuous
 62
     4
100
AcDbPoint
 10
1510.0
 20
83.0
 30
0.0
  0
POINT
  5
2579
330
2004
100
AcDbEntity
  8
TEN
  6
Continuous
 62
     4
100
AcDbPoint
 10
1515.0
 20
194.0
 30
0.0
  0
POINT
  5
257A
330
2004
100
AcDbEntity
  8
TEN
  6
Continuous
 62
     4
100
AcDbPoint
 10
1738.0
 20
243.0
 30
0.0
  0
POINT
  5
257B
330
2004
100
AcDbEntity
  8
TEN
  6
Continuous
 62
     4
100
AcDbPoint
 10
1734.0
 20
131.0
 30
0.0
  0
POINT
  5
257C
330
2004
100
AcDbEntity
  8
TEN
  6
Continuous
 62
     4
100
AcDbPoint
 10
2839.0
 20
99.0
 30
0.0
  0
POINT
  5
257D
330
2004
100
AcDbEntity
  8
TEN
  6
Continuous
 62
     4
100
AcDbPoint
 10
3074.0
 20
211.0
 30
0.0
  0
POINT
  5
257E
330
2004
100
AcDbEntity
  8
TEN
  6
Continuous
 62
     4
100
AcDbPoint
 10
3220.0
 20
103.0
 30
0.0
  0
POINT
  5
257F
330
2004
100
AcDbEntity
  8
TEN
  6
Continuous
 62
     4
100
AcDbPoint
 10
3648.0
 20
103.0
 30
0.0
  0
POINT
  5
2580
330
2004
100
AcDbEntity
  8
TEN
  6
Continuous
 62
     4
100
AcDbPoint
 10
3647.0
 20
215.0
 30
0.0
  0
TEXT
  5
2581
330
2004
100
AcDbEntity
  8
WAKU
  6
Continuous
 62
     1
100
AcDbText
 10
3859.0
 20
2832.0
 30
0.0
 40
25.0
  1
８
 41
0.84
  7
EXCADSTD
100
AcDbText
  0
TEXT
  5
2583
330
2004
100
AcDbEntity
  8
WAKU
  6
Continuous
 62
     1
100
AcDbText
 10
3392.0
 20
2837.0
 30
0.0
 40
25.0
  1
７
 41
0.84
  7
EXCADSTD
100
AcDbText
  0
TEXT
  5
2584
330
2004
100
AcDbEntity
  8
WAKU
  6
Continuous
 62
     1
100
AcDbText
 10
2887.0
 20
2837.0
 30
0.0
 40
25.0
  1
６
 41
0.84
  7
EXCADSTD
100
AcDbText
  0
TEXT
  5
2585
330
2004
100
AcDbEntity
  8
WAKU
  6
Continuous
 62
     1
100
AcDbText
 10
2376.0
 20
2837.0
 30
0.0
 40
25.0
  1
５
 41
0.84
  7
EXCADSTD
100
AcDbText
  0
TEXT
  5
2586
330
2004
100
AcDbEntity
  8
WAKU
  6
Continuous
 62
     1
100
AcDbText
 10
1890.0
 20
2837.0
 30
0.0
 40
25.0
  1
４
 41
0.84
  7
EXCADSTD
100
AcDbText
  0
TEXT
  5
2587
330
2004
100
AcDbEntity
  8
WAKU
  6
Continuous
 62
     1
100
AcDbText
 10
1375.0
 20
2837.0
 30
0.0
 40
25.0
  1
３
 41
0.84
  7
EXCADSTD
100
AcDbText
  0
TEXT
  5
2588
330
2004
100
AcDbEntity
  8
WAKU
  6
Continuous
 62
     1
100
AcDbText
 10
879.0
 20
2837.0
 30
0.0
 40
25.0
  1
２
 41
0.84
  7
EXCADSTD
100
AcDbText
  0
TEXT
  5
2589
330
2004
100
AcDbEntity
  8
WAKU
  6
Continuous
 62
     1
100
AcDbText
 10
378.0
 20
2837.0
 30
0.0
 40
25.0
  1
１
 41
0.84
  7
EXCADSTD
100
AcDbText
  0
TEXT
  5
258A
330
2004
100
AcDbEntity
  8
WAKU
  6
Continuous
 62
     1
100
AcDbText
 10
123.0
 20
520.0
 30
0.0
 40
25.0
  1
Ｅ
 41
0.84
  7
EXCADSTD
100
AcDbText
  0
TEXT
  5
258B
330
2004
100
AcDbEntity
  8
WAKU
  6
Continuous
 62
     1
100
AcDbText
 10
118.0
 20
1025.0
 30
0.0
 40
25.0
  1
Ｄ
 41
0.84
  7
EXCADSTD
100
AcDbText
  0
TEXT
  5
258C
330
2004
100
AcDbEntity
  8
WAKU
  6
Continuous
 62
     1
100
AcDbText
 10
123.0
 20
1531.0
 30
0.0
 40
25.0
  1
Ｃ
 41
0.84
  7
EXCADSTD
100
AcDbText
  0
TEXT
  5
258D
330
2004
100
AcDbEntity
  8
WAKU
  6
Continuous
 62
     1
100
AcDbText
 10
118.0
 20
2027.0
 30
0.0
 40
25.0
  1
Ｂ
 41
0.84
  7
EXCADSTD
100
AcDbText
  0
TEXT
  5
258E
330
2004
100
AcDbEntity
  8
WAKU
  6
Continuous
 62
     1
100
AcDbText
 10
118.0
 20
2527.0
 30
0.0
 40
25.0
  1
Ａ
 41
0.84
  7
EXCADSTD
100
AcDbText
  0
TEXT
  5
258F
330
2004
100
AcDbEntity
  8
WAKU
  6
Continuous
 62
     2
100
AcDbText
 10
1055.0
 20
170.0
 30
0.0
 40
30.0
  1
日塗工・マンセル
 41
0.84
  7
EXCADSTD
100
AcDbText
  0
TEXT
  5
2590
330
2004
100
AcDbEntity
  8
WAKU
  6
Continuous
 62
     2
100
AcDbText
 10
1056.0
 20
117.0
 30
0.0
 40
30.0
  1
外面
 41
0.84
  7
EXCADSTD
100
AcDbText
  0
LINE
  5
2591
330
2004
100
AcDbEntity
  8
WAKU
  6
DOT
 62
     3
100
AcDbLine
 10
210.0
 20
110.0
 30
0.0
 11
1401.0
 21
110.0
 31
0.0
  0
LINE
  5
2592
330
2004
100
AcDbEntity
  8
WAKU
  6
DOT
 62
     3
100
AcDbLine
 10
210.0
 20
210.0
 30
0.0
 11
1050.0
 21
210.0
 31
0.0
  0
LINE
  5
2593
330
2004
100
AcDbEntity
  8
WAKU
  6
Continuous
 62
     1
100
AcDbLine
 10
150.0
 20
320.0
 30
0.0
 11
170.0
 21
320.0
 31
0.0
  0
LINE
  5
2594
330
2004
100
AcDbEntity
  8
WAKU
  6
Continuous
 62
     1
100
AcDbLine
 10
150.0
 20
820.0
 30
0.0
 11
170.0
 21
820.0
 31
0.0
  0
LINE
  5
2595
330
2004
100
AcDbEntity
  8
WAKU
  6
Continuous
 62
     1
100
AcDbLine
 10
150.0
 20
1320.0
 30
0.0
 11
170.0
 21
1320.0
 31
0.0
  0
LINE
  5
2596
330
2004
100
AcDbEntity
  8
WAKU
  6
Continuous
 62
     1
100
AcDbLine
 10
150.0
 20
1820.0
 30
0.0
 11
170.0
 21
1820.0
 31
0.0
  0
LINE
  5
2597
330
2004
100
AcDbEntity
  8
WAKU
  6
Continuous
 62
     1
100
AcDbLine
 10
150.0
 20
2320.0
 30
0.0
 11
170.0
 21
2320.0
 31
0.0
  0
LINE
  5
2598
330
2004
100
AcDbEntity
  8
WAKU
  6
Continuous
 62
     1
100
AcDbLine
 10
3650.0
 20
2820.0
 30
0.0
 11
3650.0
 21
2800.0
 31
0.0
  0
LINE
  5
2599
330
2004
100
AcDbEntity
  8
WAKU
  6
Continuous
 62
     1
100
AcDbLine
 10
3150.0
 20
2820.0
 30
0.0
 11
3150.0
 21
2800.0
 31
0.0
  0
LINE
  5
259A
330
2004
100
AcDbEntity
  8
WAKU
  6
Continuous
 62
     1
100
AcDbLine
 10
2650.0
 20
2820.0
 30
0.0
 11
2650.0
 21
2800.0
 31
0.0
  0
LINE
  5
259B
330
2004
100
AcDbEntity
  8
WAKU
  6
Continuous
 62
     1
100
AcDbLine
 10
2150.0
 20
2820.0
 30
0.0
 11
2150.0
 21
2800.0
 31
0.0
  0
LINE
  5
259C
330
2004
100
AcDbEntity
  8
WAKU
  6
Continuous
 62
     1
100
AcDbLine
 10
1650.0
 20
2820.0
 30
0.0
 11
1650.0
 21
2800.0
 31
0.0
  0
LINE
  5
259D
330
2004
100
AcDbEntity
  8
WAKU
  6
Continuous
 62
     1
100
AcDbLine
 10
1150.0
 20
2820.0
 30
0.0
 11
1150.0
 21
2800.0
 31
0.0
  0
LINE
  5
259E
330
2004
100
AcDbEntity
  8
WAKU
  6
Continuous
 62
     1
100
AcDbLine
 10
650.0
 20
2820.0
 30
0.0
 11
650.0
 21
2800.0
 31
0.0
  0
POINT
  5
259F
330
2004
100
AcDbEntity
  8
TEN
  6
Continuous
 62
     4
100
AcDbPoint
 10
1820.172203531769
 20
221.000000000001
 30
0.0
  0
TEXT
  5
25A0
330
2004
100
AcDbEntity
  8
WAKU
  6
Continuous
 62
     2
100
AcDbText
 10
3084.0
 20
89.0
 30
0.0
 40
30.0
  1
記号
 41
0.98
  7
EXCADSTD
100
AcDbText
  0
LINE
  5
25A1
330
2004
100
AcDbEntity
  8
WAKU
  6
Continuous
 62
     3
100
AcDbLine
 10
3074.999968
 20
51.0
 30
0.0
 11
3074.999968
 21
160.4999999999999
 31
0.0
  0
LINE
  5
25A2
330
2004
100
AcDbEntity
  8
WAKU
  6
Continuous
 62
     5
100
AcDbLine
 10
1918.89537202802
 20
179.7759999999999
 30
0.0
 11
1920.05588952606
 21
180.9365174980419
 31
0.0
  0
CIRCLE
  5
25A3
330
2004
100
AcDbEntity
  8
WAKU
  6
Continuous
 62
     2
100
AcDbCircle
 10
1740.0
 20
179.4999999999999
 30
0.0
 40
3.0
  0
CIRCLE
  5
25A4
330
2004
100
AcDbEntity
  8
WAKU
  6
Continuous
 62
     2
100
AcDbCircle
 10
1680.0
 20
179.4999999999999
 30
0.0
 40
3.0
  0
TEXT
  5
25A5
330
2004
100
AcDbEntity
  8
WAKU
  6
Continuous
 62
     2
100
AcDbText
 10
177.991667
 20
249.0
 30
0.0
 40
31.5
  1
変更記事
 41
0.8
  7
EXCADVERT
100
AcDbText
  0
LINE
  5
25A7
330
2004
100
AcDbEntity
  8
WAKU
  6
Continuous
 62
     3
100
AcDbLine
 10
4032.0
 20
146.5
 30
0.0
 11
3976.0
 21
58.0
 31
0.0
  0
LINE
  5
25A8
330
2004
100
AcDbEntity
  8
WAKU
  6
Continuous
 62
     3
100
AcDbLine
 10
2549.999968
 20
160.4999999999999
 30
0.0
 11
4050.0
 21
160.4999999999999
 31
0.0
  0
LINE
  5
25A9
330
2004
100
AcDbEntity
  8
WAKU
  6
DOT
 62
     3
100
AcDbLine
 10
1671.0
 20
213.75
 30
0.0
 11
1799.999975
 21
213.75
 31
0.0
  0
LINE
  5
25AA
330
2004
100
AcDbEntity
  8
WAKU
  6
DOT
 62
     3
100
AcDbLine
 10
1671.0
 20
103.75
 30
0.0
 11
1799.999975
 21
103.75
 31
0.0
  0
LINE
  5
25AB
330
2004
100
AcDbEntity
  8
WAKU
  6
Continuous
 62
     3
100
AcDbLine
 10
1401.0
 20
160.0
 30
0.0
 11
1799.999975
 21
160.0
 31
0.0
  0
LINE
  5
25AC
330
2004
100
AcDbEntity
  8
WAKU
  6
DOT
 62
     3
100
AcDbLine
 10
210.0
 20
50.0
 30
0.0
 11
210.0
 21
270.0
 31
0.0
  0
LINE
  5
25AD
330
2004
100
AcDbEntity
  8
WAKU
  6
DOT
 62
     3
100
AcDbLine
 10
210.0
 20
160.0
 30
0.0
 11
1401.0
 21
160.0
 31
0.0
  0
LINE
  5
25AE
330
2004
100
AcDbEntity
  8
WAKU
  6
Continuous
 62
    11
100
AcDbLine
 10
150.0
 20
270.0
 30
0.0
 11
4050.0
 21
270.0
 31
0.0
  0
LINE
  5
25AF
330
2004
100
AcDbEntity
  8
WAKU
  6
Continuous
 62
     3
100
AcDbLine
 10
1050.0
 20
270.0
 30
0.0
 11
1050.0
 21
50.0
 31
0.0
  0
LINE
  5
25B0
330
2004
100
AcDbEntity
  8
WAKU
  6
Continuous
 62
     3
100
AcDbLine
 10
1400.0
 20
270.0
 30
0.0
 11
1400.0
 21
50.0
 31
0.0
  0
LINE
  5
25B1
330
2004
100
AcDbEntity
  8
WAKU
  6
Continuous
 62
     3
100
AcDbLine
 10
1600.0
 20
270.0
 30
0.0
 11
1600.0
 21
50.0
 31
0.0
  0
LINE
  5
25B2
330
2004
100
AcDbEntity
  8
WAKU
  6
Continuous
 62
     3
100
AcDbLine
 10
1799.999975
 20
270.0
 30
0.0
 11
1799.999975
 21
49.90000000000009
 31
0.0
  0
LINE
  5
25B3
330
2004
100
AcDbEntity
  8
WAKU
  6
Continuous
 62
     3
100
AcDbLine
 10
2549.999968
 20
270.0
 30
0.0
 11
2549.999968
 21
50.0
 31
0.0
  0
TEXT
  5
25B4
330
2004
100
AcDbEntity
  8
WAKU
  6
Continuous
 62
     2
100
AcDbText
 10
3310.0
 20
91.0
 30
0.0
 40
30.0
  1
製作数
 41
0.933333333333333
  7
EXCADSTD
100
AcDbText
  0
LINE
  5
25B5
330
2004
100
AcDbEntity
  8
WAKU
  6
Continuous
 62
     3
100
AcDbLine
 10
3550.0
 20
160.4999999999999
 30
0.0
 11
3550.0
 21
50.0
 31
0.0
  0
LINE
  5
25B6
330
2004
100
AcDbEntity
  8
WAKU
  6
Continuous
 62
     3
100
AcDbLine
 10
3300.0
 20
160.4999999999999
 30
0.0
 11
3300.0
 21
51.0
 31
0.0
  0
LINE
  5
25B7
330
2004
100
AcDbEntity
  8
WAKU
  6
Continuous
 62
     3
100
AcDbLine
 10
3550.0
 20
270.0
 30
0.0
 11
3550.0
 21
160.4999999999999
 31
0.0
  0
TEXT
  5
25B8
330
2004
100
AcDbEntity
  8
WAKU
  6
Continuous
 62
    11
100
AcDbText
 10
2002.0
 20
123.0
 30
0.0
 40
50.0
  1
エ－スライオン株式会社
 41
0.7636363636363642
  7
EXCADSTD
100
AcDbText
  0
TEXT
  5
25B9
330
2004
100
AcDbEntity
  8
WAKU
  6
Continuous
 62
     2
100
AcDbText
 10
3559.0
 20
90.0
 30
0.0
 40
30.0
  1
図番
 41
0.98
  7
EXCADSTD
100
AcDbText
  0
TEXT
  5
25BA
330
2004
100
AcDbEntity
  8
WAKU
  6
Continuous
 62
     2
100
AcDbText
 10
3504.0
 20
89.0
 30
0.0
 40
30.0
  1
面
 41
1.12
  7
EXCADSTD
100
AcDbText
  0
TEXT
  5
25BB
330
2004
100
AcDbEntity
  8
WAKU
  6
Continuous
 62
     2
100
AcDbText
 10
3553.000031999998
 20
197.0000000000009
 30
0.0
 40
30.0
  1
工番
 41
0.98
  7
EXCADSTD
100
AcDbText
  0
TEXT
  5
25BC
330
2004
100
AcDbEntity
  8
WAKU
  6
Continuous
 62
     2
100
AcDbText
 10
2563.0
 20
91.0
 30
0.0
 40
30.0
  1
品名
 41
0.98
  7
EXCADSTD
100
AcDbText
  0
TEXT
  5
25BD
330
2004
100
AcDbEntity
  8
WAKU
  6
Continuous
 62
     2
100
AcDbText
 10
3500.000031999998
 20
197.0000000000009
 30
0.0
 40
30.0
  1
殿
 41
1.12
  7
EXCADSTD
100
AcDbText
  0
TEXT
  5
25BE
330
2004
100
AcDbEntity
  8
WAKU
  6
Continuous
 62
     2
100
AcDbText
 10
2560.0
 20
200.0
 30
0.0
 40
30.0
  1
納入先
 41
0.933333333333333
  7
EXCADSTD
100
AcDbText
  0
TEXT
  5
25BF
330
2004
100
AcDbEntity
  8
WAKU
  6
Continuous
 62
     2
100
AcDbText
 10
1607.0
 20
117.5
 30
0.0
 40
30.0
  1
検図
 41
0.84
  7
EXCADSTD
100
AcDbText
  0
TEXT
  5
25C0
330
2004
100
AcDbEntity
  8
WAKU
  6
Continuous
 62
     2
100
AcDbText
 10
1607.0
 20
231.0
 30
0.0
 40
30.0
  1
製図
 41
0.84
  7
EXCADSTD
100
AcDbText
  0
TEXT
  5
25C1
330
2004
100
AcDbEntity
  8
WAKU
  6
Continuous
 62
     2
100
AcDbText
 10
1406.0
 20
117.5
 30
0.0
 40
30.0
  1
縮尺
 41
0.84
  7
EXCADSTD
100
AcDbText
  0
TEXT
  5
25C2
330
2004
100
AcDbEntity
  8
WAKU
  6
Continuous
 62
     2
100
AcDbText
 10
1408.0
 20
231.0
 30
0.0
 40
30.0
  1
形式
 41
0.84
  7
EXCADSTD
100
AcDbText
  0
TEXT
  5
25C3
330
2004
100
AcDbEntity
  8
WAKU
  6
Continuous
 62
     2
100
AcDbText
 10
1057.0
 20
61.0
 30
0.0
 40
30.0
  1
内面
 41
0.84
  7
EXCADSTD
100
AcDbText
  0
TEXT
  5
25C4
330
2004
100
AcDbEntity
  8
WAKU
  6
Continuous
 62
     2
100
AcDbText
 10
1055.0
 20
222.0
 30
0.0
 40
30.0
  1
塗装色（艶　　　　　　）
 41
0.84
  7
EXCADSTD
100
AcDbText
  0
LWPOLYLINE
  5
25C5
330
2004
100
AcDbEntity
  8
WAKU
  6
Continuous
 62
    11
100
AcDbPolyline
 90
        5
 70
     0
 43
0.0
 10
150.0
 20
50.0
 10
4050.0
 20
50.0
 10
4050.0
 20
2820.0
 10
150.0
 20
2820.0
 10
150.0
 20
50.0
  0
TEXT
  5
25C6
330
2004
100
AcDbEntity
  8
WAKU-MOJI
  6
Continuous
100
AcDbText
 10
1709.066666666666
 20
223.0
 30
0.0
 40
40.0
  1
樋田
 41
0.7
  7
M7
 72
     1
 11
1738.0
 21
243.0
 31
0.0
100
AcDbText
 73
     2
  0
LWPOLYLINE
  5
25C7
102
{ACAD_REACTORS
330
25C8
102
}
330
2004
100
AcDbEntity
  8
WAKU
  6
Continuous
 62
     1
100
AcDbPolyline
 90
        6
 70
     1
 43
0.0
 10
1876.16089539752
 20
150.592
 10
1904.538815828732
 20
150.592
 10
1896.114120700712
 20
136.0
 10
1849.999999999999
 20
136.0
 10
1873.057060350359
 20
175.9359999999999
 10
1890.793260619863
 20
175.9359999999999
  0
HATCH
  5
25C8
330
2004
100
AcDbEntity
  8
WAKU-MOJI
  6
Continuous
100
AcDbHatch
 10
0.0
 20
0.0
 30
0.0
210
0.0
220
0.0
230
1.0
  2
SOLID
 70
     1
 71
     1
 91
        1
 92
        1
 93
        6
 72
     1
 10
1876.16089539752
 20
150.592
 11
1904.538815828732
 21
150.592
 72
     1
 10
1904.538815828732
 20
150.592
 11
1896.114120700712
 21
136.0
 72
     1
 10
1896.114120700712
 20
136.0
 11
1849.999999999999
 21
136.0
 72
     1
 10
1849.999999999999
 20
136.0
 11
1873.057060350359
 21
175.9359999999999
 72
     1
 10
1873.057060350359
 20
175.9359999999999
 11
1890.793260619863
 21
175.9359999999999
 72
     1
 10
1890.793260619863
 20
175.9359999999999
 11
1876.16089539752
 21
150.592
 97
        1
330
25C7
 75
     0
 76
     1
 98
        1
 10
0.0
 20
0.0
  0
LWPOLYLINE
  5
25C9
102
{ACAD_REACTORS
330
25CE
102
}
330
2004
100
AcDbEntity
  8
WAKU
  6
Continuous
 62
     5
100
AcDbPolyline
 90
        4
 70
     1
 43
0.0
 10
1885.69691908368
 20
194.368
 10
1912.301219487945
 20
194.368
 10
1907.867169420561
 20
202.048
 10
1881.262869016304
 20
202.048
  0
LWPOLYLINE
  5
25CA
102
{ACAD_REACTORS
330
25CE
102
}
330
2004
100
AcDbEntity
  8
WAKU
  6
Continuous
 62
     5
100
AcDbPolyline
 90
        4
 70
     1
 43
0.0
 10
1894.106923175614
 20
179.8014456209069
 10
1920.711223579879
 20
179.8014456209069
 10
1916.277173512495
 20
187.4814456209069
 10
1889.672873108239
 20
187.4814456209069
  0
LWPOLYLINE
  5
25CB
102
{ACAD_REACTORS
330
25CE
102
}
330
2004
100
AcDbEntity
  8
WAKU
  6
Continuous
 62
     5
100
AcDbPolyline
 90
        4
 70
     1
 43
0.0
 10
1902.581517629863
 20
165.224799936228
 10
1929.185818034128
 20
165.224799936228
 10
1924.751767966744
 20
172.9047999362279
 10
1898.147467562489
 20
172.9047999362279
  0
LWPOLYLINE
  5
25CC
102
{ACAD_REACTORS
330
25CE
102
}
330
2004
100
AcDbEntity
  8
WAKU
  6
Continuous
 62
     5
100
AcDbPolyline
 90
        4
 70
     1
 43
0.0
 10
1919.480960321884
 20
135.9541065740468
 10
1946.085260726149
 20
135.9541065740468
 10
1941.651210658765
 20
143.6341065740469
 10
1915.04691025451
 20
143.6341065740469
  0
LWPOLYLINE
  5
25CD
102
{ACAD_REACTORS
330
25CE
102
}
330
2004
100
AcDbEntity
  8
WAKU
  6
Continuous
 62
     5
100
AcDbPolyline
 90
        4
 70
     1
 43
0.0
 10
1910.954438975873
 20
150.722474757159
 10
1937.558739380138
 20
150.722474757159
 10
1933.124689312755
 20
158.402474757159
 10
1906.5203889085
 20
158.402474757159
  0
HATCH
  5
25CE
330
2004
100
AcDbEntity
  8
WAKU-MOJI
  6
Continuous
100
AcDbHatch
 10
0.0
 20
0.0
 30
0.0
210
0.0
220
0.0
230
1.0
  2
SOLID
 70
     1
 71
     1
 91
        5
 92
        1
 93
        4
 72
     1
 10
1919.480960321884
 20
135.9541065740468
 11
1946.085260726149
 21
135.9541065740468
 72
     1
 10
1946.085260726149
 20
135.9541065740468
 11
1941.651210658765
 21
143.6341065740469
 72
     1
 10
1941.651210658765
 20
143.6341065740469
 11
1915.04691025451
 21
143.6341065740469
 72
     1
 10
1915.04691025451
 20
143.6341065740469
 11
1919.480960321884
 21
135.9541065740468
 97
        1
330
25CC
 92
        1
 93
        4
 72
     1
 10
1910.954438975873
 20
150.722474757159
 11
1937.558739380138
 21
150.722474757159
 72
     1
 10
1937.558739380138
 20
150.722474757159
 11
1933.124689312755
 21
158.402474757159
 72
     1
 10
1933.124689312755
 20
158.402474757159
 11
1906.5203889085
 21
158.402474757159
 72
     1
 10
1906.5203889085
 20
158.402474757159
 11
1910.954438975873
 21
150.722474757159
 97
        1
330
25CD
 92
        1
 93
        4
 72
     1
 10
1902.581517629863
 20
165.224799936228
 11
1929.185818034128
 21
165.224799936228
 72
     1
 10
1929.185818034128
 20
165.224799936228
 11
1924.751767966744
 21
172.9047999362279
 72
     1
 10
1924.751767966744
 20
172.9047999362279
 11
1898.147467562489
 21
172.9047999362279
 72
     1
 10
1898.147467562489
 20
172.9047999362279
 11
1902.581517629863
 21
165.224799936228
 97
        1
330
25CB
 92
        1
 93
        4
 72
     1
 10
1894.106923175614
 20
179.8014456209069
 11
1920.711223579879
 21
179.8014456209069
 72
     1
 10
1920.711223579879
 20
179.8014456209069
 11
1916.277173512495
 21
187.4814456209069
 72
     1
 10
1916.277173512495
 20
187.4814456209069
 11
1889.672873108239
 21
187.4814456209069
 72
     1
 10
1889.672873108239
 20
187.4814456209069
 11
1894.106923175614
 21
179.8014456209069
 97
        1
330
25CA
 92
        1
 93
        4
 72
     1
 10
1885.69691908368
 20
194.368
 11
1912.301219487945
 21
194.368
 72
     1
 10
1912.301219487945
 20
194.368
 11
1907.867169420561
 21
202.048
 72
     1
 10
1907.867169420561
 20
202.048
 11
1881.262869016304
 21
202.048
 72
     1
 10
1881.262869016304
 20
202.048
 11
1885.69691908368
 21
194.368
 97
        1
330
25C9
 75
     0
 76
     1
 98
        1
 10
0.0
 20
0.0
  0
LWPOLYLINE
  5
25CF
102
{ACAD_REACTORS
330
25D0
102
}
330
2004
100
AcDbEntity
  8
WAKU
  6
Continuous
 62
     7
100
AcDbPolyline
 90
        7
 70
     1
 43
0.0
 10
1843.0
 20
126.5
 10
1846.499999999999
 20
126.5
 10
1853.5
 20
102.0
 10
1850.0
 20
102.0
 10
1844.75
 20
120.375
 10
1839.5
 20
102.0
 10
1836.0
 20
102.0
  0
HATCH
  5
25D0
330
2004
100
AcDbEntity
  8
WAKU-MOJI
  6
Continuous
100
AcDbHatch
 10
0.0
 20
0.0
 30
0.0
210
0.0
220
0.0
230
1.0
  2
SOLID
 70
     1
 71
     1
 91
        2
 92
        1
 93
       69
 72
     1
 10
1869.39
 20
108.4624190070458
 11
1868.950466641679
 21
107.893481361466
 72
     1
 10
1868.950466641679
 20
107.893481361466
 11
1868.195926382809
 21
107.118483114415
 72
     1
 10
1868.195926382809
 20
107.118483114415
 11
1867.36244213045
 21
106.4822917315619
 72
     1
 10
1867.36244213045
 20
106.4822917315619
 11
1866.466236707499
 21
105.9972899545159
 72
     1
 10
1866.466236707499
 20
105.9972899545159
 11
1865.524753733089
 21
105.6729177911879
 72
     1
 10
1865.524753733089
 20
105.6729177911879
 11
1864.55631810239
 21
105.5154887767669
 72
     1
 10
1864.55631810239
 20
105.5154887767669
 11
1863.579779313388
 21
105.5280670879479
 72
     1
 10
1863.579779313388
 20
105.5280670879479
 11
1862.61414458282
 21
105.71040790221
 72
     1
 10
1862.61414458282
 20
105.71040790221
 11
1861.6782088923
 21
106.058962163013
 72
     1
 10
1861.6782088923
 20
106.058962163013
 11
1860.79018916545
 21
106.5669456581459
 72
     1
 10
1860.79018916545
 20
106.5669456581459
 11
1859.967369696138
 21
107.224471066698
 72
     1
 10
1859.967369696138
 20
107.224471066698
 11
1859.2257657294
 21
108.018740404517
 72
     1
 10
1859.2257657294
 20
108.018740404517
 11
1858.57981174287
 21
108.934294122408
 72
     1
 10
1858.57981174287
 20
108.934294122408
 11
1858.04208049616
 21
109.9533120086809
 72
     1
 10
1858.04208049616
 20
109.9533120086809
 11
1857.6230383163
 21
111.055960039295
 72
     1
 10
1857.6230383163
 20
111.055960039295
 11
1857.33084138268
 21
112.220776424578
 72
     1
 10
1857.33084138268
 20
112.220776424578
 11
1857.17117697625
 21
113.425089338548
 72
     1
 10
1857.17117697625
 20
113.425089338548
 11
1857.14715278305
 21
114.6454582002218
 72
     1
 10
1857.14715278305
 20
114.6454582002218
 11
1857.259236406689
 21
115.858129917856
 72
     1
 10
1857.259236406689
 20
115.858129917856
 11
1857.50524626691
 21
117.0395012158589
 72
     1
 10
1857.50524626691
 20
117.0395012158589
 11
1857.880394061639
 21
118.1665780457059
 72
     1
 10
1857.880394061639
 20
118.1665780457059
 11
1858.37737796575
 21
119.2174231389339
 72
     1
 10
1858.37737796575
 20
119.2174231389339
 11
1858.98652475288
 21
120.171582991124
 72
     1
 10
1858.98652475288
 20
120.171582991124
 11
1859.695978073699
 21
121.0104859660919
 72
     1
 10
1859.695978073699
 20
121.0104859660919
 11
1860.49192922631
 21
121.717803771669
 72
     1
 10
1860.49192922631
 20
121.717803771669
 11
1861.35888592692
 21
122.2797692713309
 72
     1
 10
1861.35888592692
 20
122.2797692713309
 11
1862.279973849489
 21
122.6854444458538
 72
     1
 10
1862.279973849489
 20
122.6854444458538
 11
1863.23726506533
 21
122.9269332894139
 72
     1
 10
1863.23726506533
 20
122.9269332894139
 11
1864.21212698983
 21
122.999535496362
 72
     1
 10
1864.21212698983
 20
122.999535496362
 11
1865.18558504451
 21
122.9018379473209
 72
     1
 10
1865.18558504451
 20
122.9018379473209
 11
1866.138691975639
 21
122.6357422139559
 72
     1
 10
1866.138691975639
 20
122.6357422139559
 11
1867.05289664094
 21
122.2064275470369
 72
     1
 10
1867.05289664094
 20
122.2064275470369
 11
1867.910405086499
 21
121.622250068216
 72
     1
 10
1867.910405086499
 20
121.622250068216
 11
1868.694526885819
 21
120.894580127628
 72
     1
 10
1868.694526885819
 20
120.894580127628
 11
1869.39
 21
120.0375809929539
 72
     1
 10
1869.39
 20
120.0375809929539
 11
1869.39
 21
124.8588111963589
 72
     1
 10
1869.39
 20
124.8588111963589
 11
1868.15817603983
 21
125.5675242732629
 72
     1
 10
1868.15817603983
 20
125.5675242732629
 11
1866.85759997358
 21
126.0825913720409
 72
     1
 10
1866.85759997358
 20
126.0825913720409
 11
1865.51052501831
 21
126.3951995518288
 72
     1
 10
1865.51052501831
 20
126.3951995518288
 11
1864.14
 21
126.5
 72
     1
 10
1864.14
 20
126.5
 11
1862.769474981689
 21
126.3951995518288
 72
     1
 10
1862.769474981689
 20
126.3951995518288
 11
1861.422400026419
 21
126.0825913720409
 72
     1
 10
1861.422400026419
 20
126.0825913720409
 11
1860.121823960168
 21
125.5675242732629
 72
     1
 10
1860.121823960168
 20
125.5675242732629
 11
1858.89
 21
124.8588111963589
 72
     1
 10
1858.89
 20
124.8588111963589
 11
1857.74800499541
 21
123.968578418568
 72
     1
 10
1857.74800499541
 20
123.968578418568
 11
1856.71537879754
 21
122.912058069535
 72
     1
 10
1856.71537879754
 20
122.912058069535
 11
1855.809789926939
 21
121.7073275053569
 72
     1
 10
1855.809789926939
 20
121.7073275053569
 11
1855.04673326026
 21
120.375
 72
     1
 10
1855.04673326026
 20
120.375
 11
1854.439264908629
 21
118.9378720464719
 72
     1
 10
1854.439264908629
 20
118.9378720464719
 11
1853.99777882397
 21
117.4205333025059
 72
     1
 10
1853.99777882397
 20
117.4205333025059
 11
1853.72982895558
 21
115.8489458546959
 72
     1
 10
1853.72982895558
 20
115.8489458546959
 11
1853.64
 21
114.25
 72
     1
 10
1853.64
 20
114.25
 11
1853.72982895558
 21
112.6510541453049
 72
     1
 10
1853.72982895558
 20
112.6510541453049
 11
1853.99777882397
 21
111.0794666974939
 72
     1
 10
1853.99777882397
 20
111.0794666974939
 11
1854.439264908629
 21
109.5621279535279
 72
     1
 10
1854.439264908629
 20
109.5621279535279
 11
1855.04673326026
 21
108.125
 72
     1
 10
1855.04673326026
 20
108.125
 11
1855.809789926939
 21
106.7926724946429
 72
     1
 10
1855.809789926939
 20
106.7926724946429
 11
1856.71537879754
 21
105.5879419304649
 72
     1
 10
1856.71537879754
 20
105.5879419304649
 11
1857.74800499541
 21
104.5314215814318
 72
     1
 10
1857.74800499541
 20
104.5314215814318
 11
1858.89
 21
103.6411888036409
 72
     1
 10
1858.89
 20
103.6411888036409
 11
1860.121823960168
 21
102.9324757267369
 72
     1
 10
1860.121823960168
 20
102.9324757267369
 11
1861.422400026419
 21
102.4174086279589
 72
     1
 10
1861.422400026419
 20
102.4174086279589
 11
1862.769474981689
 21
102.104800448171
 72
     1
 10
1862.769474981689
 20
102.104800448171
 11
1864.14
 21
102.0
 72
     1
 10
1864.14
 20
102.0
 11
1865.51052501831
 21
102.104800448171
 72
     1
 10
1865.51052501831
 20
102.104800448171
 11
1866.85759997358
 21
102.4174086279589
 72
     1
 10
1866.85759997358
 20
102.4174086279589
 11
1868.15817603983
 21
102.9324757267369
 72
     1
 10
1868.15817603983
 20
102.9324757267369
 11
1869.39
 21
103.6411888036409
 72
     1
 10
1869.39
 20
103.6411888036409
 11
1869.39
 21
108.4624190070458
 97
        1
330
256B
 92
        1
 93
        7
 72
     1
 10
1843.0
 20
126.5
 11
1846.499999999999
 21
126.5
 72
     1
 10
1846.499999999999
 20
126.5
 11
1853.5
 21
102.0
 72
     1
 10
1853.5
 20
102.0
 11
1850.0
 21
102.0
 72
     1
 10
1850.0
 20
102.0
 11
1844.75
 21
120.375
 72
     1
 10
1844.75
 20
120.375
 11
1839.5
 21
102.0
 72
     1
 10
1839.5
 20
102.0
 11
1836.0
 21
102.0
 72
     1
 10
1836.0
 20
102.0
 11
1843.0
 21
126.5
 97
        1
330
25CF
 75
     0
 76
     1
 98
        1
 10
0.0
 20
0.0
  0
HATCH
  5
25D1
330
2004
100
AcDbEntity
  8
WAKU-MOJI
  6
Continuous
100
AcDbHatch
 10
0.0
 20
0.0
 30
0.0
210
0.0
220
0.0
230
1.0
  2
SOLID
 70
     1
 71
     1
 91
        6
 92
        1
 93
       12
 72
     1
 10
1888.5
 20
102.0
 11
1874.5
 21
102.0
 72
     1
 10
1874.5
 20
102.0
 11
1874.5
 21
126.5
 72
     1
 10
1874.5
 20
126.5
 11
1888.5
 21
126.5
 72
     1
 10
1888.5
 20
126.5
 11
1888.5
 21
123.0
 72
     1
 10
1888.5
 20
123.0
 11
1878.0
 21
123.0
 72
     1
 10
1878.0
 20
123.0
 11
1878.0
 21
116.0
 72
     1
 10
1878.0
 20
116.0
 11
1888.5
 21
116.0
 72
     1
 10
1888.5
 20
116.0
 11
1888.5
 21
112.5
 72
     1
 10
1888.5
 20
112.5
 11
1878.0
 21
112.5
 72
     1
 10
1878.0
 20
112.5
 11
1878.0
 21
105.4999999999999
 72
     1
 10
1878.0
 20
105.4999999999999
 11
1888.5
 21
105.4999999999999
 72
     1
 10
1888.5
 20
105.4999999999999
 11
1888.5
 21
102.0
 97
        1
330
2571
 92
        1
 93
        6
 72
     1
 10
1902.5
 20
126.5
 11
1902.5
 21
105.4999999999999
 72
     1
 10
1902.5
 20
105.4999999999999
 11
1909.499999999999
 21
105.4999999999999
 72
     1
 10
1909.499999999999
 20
105.4999999999999
 11
1909.499999999999
 21
102.0
 72
     1
 10
1909.499999999999
 20
102.0
 11
1899.0
 21
102.0
 72
     1
 10
1899.0
 20
102.0
 11
1899.0
 21
126.5
 72
     1
 10
1899.0
 20
126.5
 11
1902.5
 21
126.5
 97
        1
330
2570
 92
        1
 93
        4
 72
     1
 10
1913.0
 20
126.5
 11
1913.0
 21
102.0
 72
     1
 10
1913.0
 20
102.0
 11
1916.5
 21
102.0
 72
     1
 10
1916.5
 20
102.0
 11
1916.5
 21
126.5
 72
     1
 10
1916.5
 20
126.5
 11
1913.0
 21
126.5
 97
        1
330
256F
 92
        1
 93
       10
 72
     1
 10
1937.5
 20
102.0
 11
1941.0
 21
102.0
 72
     1
 10
1941.0
 20
102.0
 11
1941.0
 21
119.5
 72
     1
 10
1941.0
 20
119.5
 11
1951.5
 21
102.0
 72
     1
 10
1951.5
 20
102.0
 11
1955.0
 21
102.0
 72
     1
 10
1955.0
 20
102.0
 11
1955.0
 21
126.5
 72
     1
 10
1955.0
 20
126.5
 11
1951.5
 21
126.5
 72
     1
 10
1951.5
 20
126.5
 11
1951.5
 21
109.0
 72
     1
 10
1951.5
 20
109.0
 11
1941.0
 21
126.5
 72
     1
 10
1941.0
 20
126.5
 11
1937.5
 21
126.5
 72
     1
 10
1937.5
 20
126.5
 11
1937.5
 21
102.0
 97
        1
330
256E
 92
        1
 93
       48
 72
     1
 10
1927.0
 20
126.5
 11
1925.85789581807
 21
126.3951995518288
 72
     1
 10
1925.85789581807
 20
126.3951995518288
 11
1924.73533335535
 21
126.0825913720409
 72
     1
 10
1924.73533335535
 20
126.0825913720409
 11
1923.65151996681
 21
125.5675242732629
 72
     1
 10
1923.65151996681
 20
125.5675242732629
 11
1922.625
 21
124.8588111963589
 72
     1
 10
1922.625
 20
124.8588111963589
 11
1921.67333749617
 21
123.968578418568
 72
     1
 10
1921.67333749617
 20
123.968578418568
 11
1920.81281566462
 21
122.912058069535
 72
     1
 10
1920.81281566462
 20
122.912058069535
 11
1920.05815827245
 21
121.7073275053569
 72
     1
 10
1920.05815827245
 20
121.7073275053569
 11
1919.42227771689
 21
120.375
 72
     1
 10
1919.42227771689
 20
120.375
 11
1918.91605409053
 21
118.9378720464719
 72
     1
 10
1918.91605409053
 20
118.9378720464719
 11
1918.54814901997
 21
117.4205333025059
 72
     1
 10
1918.54814901997
 20
117.4205333025059
 11
1918.324857462978
 21
115.8489458546959
 72
     1
 10
1918.324857462978
 20
115.8489458546959
 11
1918.25
 21
114.25
 72
     1
 10
1918.25
 20
114.25
 11
1918.324857462978
 21
112.6510541453038
 72
     1
 10
1918.324857462978
 20
112.6510541453038
 11
1918.54814901997
 21
111.0794666974939
 72
     1
 10
1918.54814901997
 20
111.0794666974939
 11
1918.91605409053
 21
109.5621279535279
 72
     1
 10
1918.91605409053
 20
109.5621279535279
 11
1919.42227771689
 21
108.125
 72
     1
 10
1919.42227771689
 20
108.125
 11
1920.05815827245
 21
106.7926724946429
 72
     1
 10
1920.05815827245
 20
106.7926724946429
 11
1920.81281566462
 21
105.5879419304649
 72
     1
 10
1920.81281566462
 20
105.5879419304649
 11
1921.67333749617
 21
104.5314215814318
 72
     1
 10
1921.67333749617
 20
104.5314215814318
 11
1922.625
 21
103.6411888036409
 72
     1
 10
1922.625
 20
103.6411888036409
 11
1923.65151996681
 21
102.9324757267369
 72
     1
 10
1923.65151996681
 20
102.9324757267369
 11
1924.73533335535
 21
102.4174086279589
 72
     1
 10
1924.73533335535
 20
102.4174086279589
 11
1925.85789581807
 21
102.104800448171
 72
     1
 10
1925.85789581807
 20
102.104800448171
 11
1927.0
 21
102.0
 72
     1
 10
1927.0
 20
102.0
 11
1928.142104181929
 21
102.104800448171
 72
     1
 10
1928.142104181929
 20
102.104800448171
 11
1929.264666644649
 21
102.4174086279589
 72
     1
 10
1929.264666644649
 20
102.4174086279589
 11
1930.348480033189
 21
102.9324757267369
 72
     1
 10
1930.348480033189
 20
102.9324757267369
 11
1931.375
 21
103.6411888036409
 72
     1
 10
1931.375
 20
103.6411888036409
 11
1932.326662503829
 21
104.5314215814318
 72
     1
 10
1932.326662503829
 20
104.5314215814318
 11
1933.18718433538
 21
105.5879419304649
 72
     1
 10
1933.18718433538
 20
105.5879419304649
 11
1933.94184172755
 21
106.7926724946429
 72
     1
 10
1933.94184172755
 20
106.7926724946429
 11
1934.577722283109
 21
108.125
 72
     1
 10
1934.577722283109
 20
108.125
 11
1935.08394590947
 21
109.5621279535279
 72
     1
 10
1935.08394590947
 20
109.5621279535279
 11
1935.45185098003
 21
111.0794666974939
 72
     1
 10
1935.45185098003
 20
111.0794666974939
 11
1935.67514253702
 21
112.6510541453038
 72
     1
 10
1935.67514253702
 20
112.6510541453038
 11
1935.75
 21
114.25
 72
     1
 10
1935.75
 20
114.25
 11
1935.67514253702
 21
115.8489458546959
 72
     1
 10
1935.67514253702
 20
115.8489458546959
 11
1935.45185098003
 21
117.4205333025059
 72
     1
 10
1935.45185098003
 20
117.4205333025059
 11
1935.08394590947
 21
118.9378720464719
 72
     1
 10
1935.08394590947
 20
118.9378720464719
 11
1934.577722283109
 21
120.375
 72
     1
 10
1934.577722283109
 20
120.375
 11
1933.94184172755
 21
121.7073275053569
 72
     1
 10
1933.94184172755
 20
121.7073275053569
 11
1933.18718433538
 21
122.912058069535
 72
     1
 10
1933.18718433538
 20
122.912058069535
 11
1932.326662503829
 21
123.968578418568
 72
     1
 10
1932.326662503829
 20
123.968578418568
 11
1931.375
 21
124.8588111963589
 72
     1
 10
1931.375
 20
124.8588111963589
 11
1930.348480033189
 21
125.5675242732629
 72
     1
 10
1930.348480033189
 20
125.5675242732629
 11
1929.264666644649
 21
126.0825913720409
 72
     1
 10
1929.264666644649
 20
126.0825913720409
 11
1928.142104181929
 21
126.3951995518288
 72
     1
 10
1928.142104181929
 20
126.3951995518288
 11
1927.0
 21
126.5
 97
        1
330
256D
 92
       16
 93
       45
 72
     1
 10
1932.25
 20
114.25
 11
1932.19890736089
 21
115.4677646334009
 72
     1
 10
1932.19890736089
 20
115.4677646334009
 11
1932.04662390368
 21
116.6618268633989
 72
     1
 10
1932.04662390368
 20
116.6618268633989
 11
1931.79611365262
 21
117.8089456269129
 72
     1
 10
1931.79611365262
 20
117.8089456269129
 11
1931.45225250482
 21
118.8867935620409
 72
     1
 10
1931.45225250482
 20
118.8867935620409
 11
1931.02173332638
 21
119.8743915847568
 72
     1
 10
1931.02173332638
 20
119.8743915847568
 11
1930.512935683379
 21
120.7525172229269
 72
     1
 10
1930.512935683379
 20
120.7525172229269
 11
1929.935762743219
 21
121.504078759857
 72
     1
 10
1929.935762743219
 20
121.504078759857
 11
1929.301448520639
 21
122.114447905118
 72
     1
 10
1929.301448520639
 20
122.114447905118
 11
1928.62233922047
 21
122.571744517583
 72
     1
 10
1928.62233922047
 20
122.571744517583
 11
1927.911652932749
 21
122.8670678388569
 72
     1
 10
1927.911652932749
 20
122.8670678388569
 11
1927.183222357689
 21
122.9946697364169
 72
     1
 10
1927.183222357689
 20
122.9946697364169
 11
1926.45122556785
 21
122.9520665844719
 72
     1
 10
1926.45122556785
 20
122.9520665844719
 11
1925.729910048099
 21
122.740087604915
 72
     1
 10
1925.729910048099
 20
122.740087604915
 11
1925.03331538457
 21
122.3628587274589
 72
     1
 10
1925.03331538457
 20
122.3628587274589
 11
1924.375
 21
121.8277222831138
 72
     1
 10
1924.375
 20
121.8277222831138
 11
1923.767777254538
 21
121.145094094059
 72
     1
 10
1923.767777254538
 20
121.145094094059
 11
1923.223466048219
 21
120.328260741516
 72
     1
 10
1923.223466048219
 20
120.328260741516
 11
1922.752660779529
 21
119.3931209575589
 72
     1
 10
1922.752660779529
 20
119.3931209575589
 11
1922.36452513749
 21
118.357876174377
 72
     1
 10
1922.36452513749
 20
118.357876174377
 11
1922.066613740869
 21
117.2426762540998
 72
     1
 10
1922.066613740869
 20
117.2426762540998
 11
1921.864725096148
 21
116.0692272946549
 72
     1
 10
1921.864725096148
 20
116.0692272946549
 11
1921.762788736138
 21
114.8603691452608
 72
     1
 10
1921.762788736138
 20
114.8603691452608
 11
1921.762788736138
 21
113.6396308547388
 72
     1
 10
1921.762788736138
 20
113.6396308547388
 11
1921.864725096148
 21
112.430772705345
 72
     1
 10
1921.864725096148
 20
112.430772705345
 11
1922.066613740869
 21
111.2573237458999
 72
     1
 10
1922.066613740869
 20
111.2573237458999
 11
1922.36452513749
 21
110.142123825624
 72
     1
 10
1922.36452513749
 20
110.142123825624
 11
1922.752660779529
 21
109.106879042441
 72
     1
 10
1922.752660779529
 20
109.106879042441
 11
1923.223466048219
 21
108.171739258484
 72
     1
 10
1923.223466048219
 20
108.171739258484
 11
1923.767777254538
 21
107.3549059059409
 72
     1
 10
1923.767777254538
 20
107.3549059059409
 11
1924.375
 21
106.6722777168859
 72
     1
 10
1924.375
 20
106.6722777168859
 11
1925.03331538457
 21
106.137141272541
 72
     1
 10
1925.03331538457
 20
106.137141272541
 11
1925.729910048099
 21
105.7599123950849
 72
     1
 10
1925.729910048099
 20
105.7599123950849
 11
1926.45122556785
 21
105.5479334155279
 72
     1
 10
1926.45122556785
 20
105.5479334155279
 11
1927.183222357689
 21
105.5053302635828
 72
     1
 10
1927.183222357689
 20
105.5053302635828
 11
1927.911652932749
 21
105.632932161143
 72
     1
 10
1927.911652932749
 20
105.632932161143
 11
1928.62233922047
 21
105.9282554824169
 72
     1
 10
1928.62233922047
 20
105.9282554824169
 11
1929.301448520639
 21
106.3855520948819
 72
     1
 10
1929.301448520639
 20
106.3855520948819
 11
1929.935762743219
 21
106.9959212401429
 72
     1
 10
1929.935762743219
 20
106.9959212401429
 11
1930.512935683379
 21
107.747482777073
 72
     1
 10
1930.512935683379
 20
107.747482777073
 11
1931.02173332638
 21
108.625608415243
 72
     1
 10
1931.02173332638
 20
108.625608415243
 11
1931.45225250482
 21
109.6132064379599
 72
     1
 10
1931.45225250482
 20
109.6132064379599
 11
1931.79611365262
 21
110.6910543730869
 72
     1
 10
1931.79611365262
 20
110.6910543730869
 11
1932.04662390368
 21
111.838173136601
 72
     1
 10
1932.04662390368
 20
111.838173136601
 11
1932.19890736089
 21
113.032235366599
 72
     1
 10
1932.19890736089
 20
113.032235366599
 11
1932.25
 21
114.25
 97
        1
330
256C
 75
     0
 76
     1
 98
        1
 10
0.0
 20
0.0
  0
TEXT
  5
25D2
330
2004
100
AcDbEntity
  8
WAKU-MOJI
  6
Continuous
100
AcDbText
 10
2859.333333333333
 20
191.0
 30
0.0
 40
40.0
  1
島根小学校改築電気設備工事
 41
0.7
  7
M7
 72
     1
 11
3074.0
 21
211.0
 31
0.0
100
AcDbText
 73
     2
  0
TEXT
  5
25D3
330
2004
100
AcDbEntity
  8
WAKU-MOJI
  6
Continuous
100
AcDbText
 10
2657.083333333333
 20
86.5
 30
0.0
 40
25.0
  1
1P-体育館・1L-体育館・1T-体育館
 41
0.7
  7
M7
 72
     1
 11
2849.0
 21
99.0
 31
0.0
100
AcDbText
 73
     2
  0
TEXT
  5
25D4
330
2004
100
AcDbEntity
  8
WAKU-MOJI
  6
Continuous
100
AcDbText
 10
3647.0
 20
195.0
 30
0.0
 40
40.0
  1
8160628
 41
0.7
  7
M7
 11
3647.0
 21
215.0
 31
0.0
100
AcDbText
 73
     2
  0
TEXT
  5
25D5
330
2004
100
AcDbEntity
  8
WAKU-MOJI
  6
Continuous
100
AcDbText
 10
3648.0
 20
83.0
 30
0.0
 40
40.0
  1
3408105
 41
0.7
  7
M7
 11
3648.0
 21
103.0
 31
0.0
100
AcDbText
 73
     2
  0
TEXT
  5
25D6
330
2004
100
AcDbEntity
  8
WAKU-MOJI
  6
Continuous
100
AcDbText
 10
1708.133333333333
 20
113.0
 30
0.0
 40
40.0
  1
青柳
 41
0.7
  7
M7
 72
     1
 11
1738.0
 21
133.0
 31
0.0
100
AcDbText
 73
     2
  0
TEXT
  5
25D7
330
2004
100
AcDbEntity
  8
WAKU-MOJI
  6
Continuous
100
AcDbText
 10
4001.666666666666
 20
55.0
 30
0.0
 40
40.0
  1
14
 41
0.7
  7
M7
 72
     1
 11
4025.0
 21
75.0
 31
0.0
100
AcDbText
 73
     2
  0
TEXT
  5
25D8
330
2004
100
AcDbEntity
  8
WAKU-MOJI
  6
Continuous
100
AcDbText
 10
1633.625
 20
169.5
 30
0.0
 40
35.0
  1
01
 41
0.7
  7
M7
 72
     1
 11
1652.0
 21
187.0
 31
0.0
100
AcDbText
 73
     2
  0
TEXT
  5
25D9
330
2004
100
AcDbEntity
  8
WAKU-MOJI
  6
Continuous
100
AcDbText
 10
1691.625
 20
169.5
 30
0.0
 40
35.0
  1
11
 41
0.7
  7
M7
 72
     1
 11
1710.0
 21
187.0
 31
0.0
100
AcDbText
 73
     2
  0
TEXT
  5
25DA
330
2004
100
AcDbEntity
  8
WAKU-MOJI
  6
Continuous
100
AcDbText
 10
1747.583333333333
 20
169.5
 30
0.0
 40
35.0
  1
15
 41
0.7
  7
M7
 72
     1
 11
1768.0
 21
187.0
 31
0.0
100
AcDbText
 73
     2
  0
ENDBLK
  5
2006
330
2004
100
AcDbEntity
  8
0
100
AcDbBlockEnd
  0
BLOCK
  5
2093
330
2088
100
AcDbEntity
  8
0
100
AcDbBlockBegin
  2
AO02
 70
     2
 10
0.0
 20
0.0
 30
0.0
  3
AO02
  1

  0
ATTDEF
  5
2089
330
2088
100
AcDbEntity
  8
ZOKUSEI
  6
Continuous
100
AcDbText
 10
60.41666666666667
 20
-12.5
 30
0.0
 40
25.0
  1
WL
 41
0.7
  7
M7
 72
     4
 11
75.0
 21
0.0
 31
0.0
100
AcDbAttributeDefinition
  3

  2
KIGO
 70
     0
  0
ATTDEF
  5
208A
330
2088
100
AcDbEntity
  8
ZOKUSEI
  6
Continuous
100
AcDbText
 10
120.625
 20
-37.5
 30
0.0
 40
25.0
  1
1
 41
0.7
  7
M7
 72
     4
 11
125.0
 21
-25.0
 31
0.0
100
AcDbAttributeDefinition
  3

  2
BANGO
 70
     0
  0
LINE
  5
208B
330
2088
100
AcDbEntity
  8
KYU-JIS
  6
ByBlock
100
AcDbLine
 10
0.0
 20
0.0
 30
0.0
 11
45.0
 21
0.0
 31
0.0
  0
LINE
  5
208C
330
2088
100
AcDbEntity
  8
SIN-JIS
  6
ByBlock
100
AcDbLine
 10
49.99996200000009
 20
-0.0000379999996767
 30
0.0
 11
-0.0000379999999041
 21
-0.0000379999996767
 31
0.0
  0
CIRCLE
  5
208D
330
2088
100
AcDbEntity
  8
KYU-JIS
  6
ByBlock
100
AcDbCircle
 10
75.0
 20
0.0
 30
0.0
 40
30.0
  0
CIRCLE
  5
208E
330
2088
100
AcDbEntity
  8
SIN-JIS
  6
ByBlock
100
AcDbCircle
 10
75.0
 20
0.0
 30
0.0
 40
25.0
  0
LINE
  5
208F
330
2088
100
AcDbEntity
  8
KYU-JIS
  6
ByBlock
100
AcDbLine
 10
39.64462294067198
 20
-35.35533905932743
 30
0.0
 11
53.78675856440303
 21
-21.21320343559637
 31
0.0
  0
LINE
  5
2090
330
2088
100
AcDbEntity
  8
KYU-JIS
  6
ByBlock
100
AcDbLine
 10
110.3553010593268
 20
-35.35533905932743
 30
0.0
 11
96.21316543559579
 21
-21.21320343559637
 31
0.0
  0
LINE
  5
2091
330
2088
100
AcDbEntity
  8
KYU-JIS
  6
ByBlock
100
AcDbLine
 10
53.78675856440303
 20
21.21320343559637
 30
0.0
 11
39.64462294067198
 21
35.35533905932743
 31
0.0
  0
LINE
  5
2092
330
2088
100
AcDbEntity
  8
KYU-JIS
  6
ByBlock
100
AcDbLine
 10
96.21316543559579
 20
21.21320343559637
 30
0.0
 11
110.3553010593268
 21
35.35533905932743
 31
0.0
  0
ENDBLK
  5
2094
330
2088
100
AcDbEntity
  8
0
100
AcDbBlockEnd
  0
BLOCK
  5
209D
330
2099
100
AcDbEntity
  8
0
 62
     7
100
AcDbBlockBegin
  2
AM01
 70
     0
 10
0.0
 20
0.0
 30
0.0
  3
AM01
  1

  0
LINE
  5
209A
330
2099
100
AcDbEntity
  8
JIS
  6
ByBlock
 62
     7
100
AcDbLine
 10
0.0
 20
40.0
 30
0.0
 11
0.0
 21
0.0
 31
0.0
  0
CIRCLE
  5
209B
330
2099
100
AcDbEntity
  8
JIS
  6
Continuous
 62
     7
100
AcDbCircle
 10
0.0
 20
49.99999999999909
 30
0.0
 40
5.0
  0
CIRCLE
  5
209C
330
2099
100
AcDbEntity
  8
JIS
  6
Continuous
 62
     7
100
AcDbCircle
 10
0.0
 20
49.99999999999909
 30
0.0
 40
10.0
  0
ENDBLK
  5
209E
330
2099
100
AcDbEntity
  8
0
 62
     7
100
AcDbBlockEnd
  0
BLOCK
  5
20A8
330
209F
100
AcDbEntity
  8
0
 62
     7
100
AcDbBlockBegin
  2
AQ02
 70
     2
 10
0.0
 20
0.0
 30
0.0
  3
AQ02
  1

  0
ATTDEF
  5
20A0
330
209F
100
AcDbEntity
  8
ZOKUSEI
  6
Continuous
100
AcDbText
 10
83.33333333333333
 20
17.5
 30
0.0
 40
25.0
  1
F
 41
0.7
  7
M7
 72
     2
 11
95.0
 21
30.0
 31
0.0
100
AcDbAttributeDefinition
  3

  2
KIGO
 70
     8
 74
     2
  0
ATTDEF
  5
20A1
330
209F
100
AcDbEntity
  8
ZOKUSEI
  6
Continuous
100
AcDbText
 10
105.0
 20
17.5
 30
0.0
 40
25.0
  1
1
 41
0.7
  7
M7
 11
105.0
 21
30.0
 31
0.0
100
AcDbAttributeDefinition
  3
番号を入力してください
  2
BANGO
 70
     0
 74
     2
  0
ATTDEF
  5
20A2
330
209F
100
AcDbEntity
  8
ZOKUSEI
  6
ByBlock
100
AcDbText
 10
70.83333333333333
 20
-42.5
 30
0.0
 40
25.0
  1
(1A)
 41
0.7
  7
M7
 72
     1
 11
100.0
 21
-30.0
 31
0.0
100
AcDbAttributeDefinition
  3

  2
TEIKAKU
 70
     8
 74
     2
  0
LINE
  5
20A3
330
209F
100
AcDbEntity
  8
C-CIRCUIT
  6
Continuous
100
AcDbLine
 10
137.5
 20
0.0
 30
0.0
 11
200.0
 21
0.0
 31
0.0
  0
LINE
  5
20A4
330
209F
100
AcDbEntity
  8
C-CIRCUIT
  6
Continuous
100
AcDbLine
 10
0.0
 20
0.0
 30
0.0
 11
62.5
 21
0.0
 31
0.0
  0
LINE
  5
20A5
330
209F
100
AcDbEntity
  8
KYU-JIS
  6
ByBlock
 62
     7
100
AcDbLine
 10
137.5
 20
12.5
 30
0.0
 11
62.5
 21
-12.5
 31
0.0
  0
LINE
  5
20A6
330
209F
100
AcDbEntity
  8
SIN-JIS
  6
ByBlock
 62
     7
100
AcDbLine
 10
137.5
 20
0.0
 30
0.0
 11
62.5
 21
0.0
 31
0.0
  0
LWPOLYLINE
  5
20A7
330
209F
100
AcDbEntity
  8
C-CIRCUIT
  6
ByBlock
 62
     7
100
AcDbPolyline
 90
        4
 70
     1
 43
0.0
 10
62.5
 20
12.5
 10
137.5
 20
12.5
 10
137.5
 20
-12.5
 10
62.5
 20
-12.5
  0
ENDBLK
  5
20A9
330
209F
100
AcDbEntity
  8
0
 62
     7
100
AcDbBlockEnd
  0
BLOCK
  5
20E8
330
20D7
100
AcDbEntity
  8
0
100
AcDbBlockBegin
  2
AP01
 70
     2
 10
0.0
 20
0.0
 30
0.0
  3
AP01
  1

  0
ATTDEF
  5
20D8
330
20D7
100
AcDbEntity
  8
ZOKUSEI
  6
ByBlock
100
AcDbText
 10
40.0
 20
-69.99999103693653
 30
0.0
 40
25.0
  1
MCCB
 41
0.7
  7
M7
100
AcDbAttributeDefinition
  3

  2
KIGO
 70
     8
  0
ATTDEF
  5
20D9
330
20D7
100
AcDbEntity
  8
ZOKUSEI
  6
ByBlock
100
AcDbText
 10
130.0
 20
-69.99999103693653
 30
0.0
 40
25.0
  1
C
 41
0.7
  7
M7
100
AcDbAttributeDefinition
  3
番号を入力してください
  2
BANGO
 70
     0
  0
ATTDEF
  5
20DA
330
20D7
100
AcDbEntity
  8
ZOKUSEI
100
AcDbText
 10
39.99999699999989
 20
-99.99999900000013
 30
0.0
 40
25.0
  1
3P
 41
0.7
  7
M7
100
AcDbAttributeDefinition
  3
極数を入力してください:
  2
KYOKU
 70
     0
  0
ATTDEF
  5
20DB
330
20D7
100
AcDbEntity
  8
ZOKUSEI
100
AcDbText
 10
79.99999899999966
 20
-99.99999900000013
 30
0.0
 40
25.0
  1
100AF
 41
0.7
  7
M7
100
AcDbAttributeDefinition
  3
フレーム電流を入力してください
  2
TEIKAKU1
 70
     0
  0
ATTDEF
  5
20DC
330
20D7
100
AcDbEntity
  8
ZOKUSEI
100
AcDbText
 10
79.99999899999966
 20
-129.999999
 30
0.0
 40
25.0
  1
75AT
 41
0.7
  7
M7
100
AcDbAttributeDefinition
  3
定格電流を入力してください
  2
TEIKAKU2
 70
     0
  0
ATTDEF
  5
20DD
330
20D7
100
AcDbEntity
  8
ZOKUSEI
100
AcDbText
 10
39.99999899999965
 20
-159.9999980000001
 30
0.0
 40
25.0
  1
(EA103B)
 41
0.7
  7
M7
100
AcDbAttributeDefinition
  3
形式を入力してください:
  2
KATA
 70
     0
  0
ARC
  5
20DE
330
20D7
100
AcDbEntity
  8
KYU-JIS
  6
ByBlock
100
AcDbCircle
 10
-35.83331999999973
 20
-99.99999900000013
 30
0.0
 40
60.83331999999999
100
AcDbArc
 50
321.8412169999998
 51
38.15879799999999
  0
LINE
  5
20DF
330
20D7
100
AcDbEntity
  8
SIN-JIS
  6
ByBlock
100
AcDbLine
 10
-25.0
 20
-50.0
 30
0.0
 11
0.0
 21
-129.999999
 31
0.0
  0
CIRCLE
  5
20E0
330
20D7
100
AcDbEntity
  8
KYU-JIS
  6
ByBlock
100
AcDbCircle
 10
0.0
 20
-141.9999679999999
 30
0.0
 40
8.0
  0
LINE
  5
20E1
330
20D7
100
AcDbEntity
  8
SIN-JIS
  6
ByBlock
100
AcDbLine
 10
0.0
 20
-129.999999
 30
0.0
 11
0.0
 21
-199.9999980000002
 31
0.0
  0
LINE
  5
20E2
330
20D7
100
AcDbEntity
  8
KYU-JIS
  6
ByBlock
100
AcDbLine
 10
0.0
 20
-149.9999980000002
 30
0.0
 11
0.0
 21
-199.9999980000002
 31
0.0
  0
LINE
  5
20E3
330
20D7
100
AcDbEntity
  8
KYU-JIS
  6
ByBlock
100
AcDbLine
 10
0.0
 20
0.0
 30
0.0
 11
0.0
 21
-50.0
 31
0.0
  0
LINE
  5
20E4
330
20D7
100
AcDbEntity
  8
SIN-JIS
  6
ByBlock
100
AcDbLine
 10
0.0
 20
0.0
 30
0.0
 11
0.0
 21
-60.0
 31
0.0
  0
CIRCLE
  5
20E5
330
20D7
100
AcDbEntity
  8
KYU-JIS
  6
ByBlock
100
AcDbCircle
 10
0.0
 20
-58.00003000000015
 30
0.0
 40
8.0
  0
LINE
  5
20E6
330
20D7
100
AcDbEntity
  8
SIN-JIS
  6
ByBlock
100
AcDbLine
 10
-7.999878000000535
 20
-51.99996899999996
 30
0.0
 11
7.999877999999624
 21
-68.00003000000015
 31
0.0
  0
LINE
  5
20E7
330
20D7
100
AcDbEntity
  8
SIN-JIS
  6
ByBlock
100
AcDbLine
 10
-7.999878000000535
 20
-68.00003000000015
 30
0.0
 11
7.999877999999624
 21
-51.99996899999996
 31
0.0
  0
ENDBLK
  5
20E9
330
20D7
100
AcDbEntity
  8
0
100
AcDbBlockEnd
  0
BLOCK
  5
2114
330
20FA
100
AcDbEntity
  8
0
100
AcDbBlockBegin
  2
AP02
 70
     2
 10
0.0
 20
0.0
 30
0.0
  3
AP02
  1

  0
ATTDEF
  5
20FB
330
20FA
100
AcDbEntity
  8
ZOKUSEI
  6
ByBlock
100
AcDbText
 10
50.0
 20
-69.99999900000057
 30
0.0
 40
25.0
  1
ELCB
 41
0.7
  7
M7
100
AcDbAttributeDefinition
  3

  2
KIGO
 70
     8
  0
ATTDEF
  5
20FC
330
20FA
100
AcDbEntity
  8
ZOKUSEI
  6
ByBlock
100
AcDbText
 10
140.0000010000011
 20
-69.99999103693653
 30
0.0
 40
25.0
  1
1
 41
0.7
  7
M7
100
AcDbAttributeDefinition
  3
番号を入力してください
  2
BANGO
 70
     0
  0
ATTDEF
  5
20FD
330
20FA
100
AcDbEntity
  8
ZOKUSEI
100
AcDbText
 10
49.99999800000114
 20
-99.99999900000013
 30
0.0
 40
25.0
  1
3P
 41
0.7
  7
M7
100
AcDbAttributeDefinition
  3
極数を入力してください
  2
KYOKU
 70
     0
  0
ATTDEF
  5
20FE
330
20FA
100
AcDbEntity
  8
ZOKUSEI
100
AcDbText
 10
89.99999899999966
 20
-100.0000069630641
 30
0.0
 40
25.0
  1
50AF
 41
0.7
  7
M7
100
AcDbAttributeDefinition
  3
フレーム電流を入力してください
  2
TEIKAKU1
 70
     0
  0
ATTDEF
  5
20FF
330
20FA
100
AcDbEntity
  8
ZOKUSEI
100
AcDbText
 10
89.99999899999966
 20
-130.0000069630641
 30
0.0
 40
25.0
  1
30AT
 41
0.7
  7
M7
100
AcDbAttributeDefinition
  3
定格電流を入力してください
  2
TEIKAKU2
 70
     0
  0
ATTDEF
  5
2100
330
20FA
100
AcDbEntity
  8
ZOKUSEI
100
AcDbText
 10
90.00000000000182
 20
-159.9999980000001
 30
0.0
 40
25.0
  1
30mA
 41
0.7
  7
M7
100
AcDbAttributeDefinition
  3
感度電流を入力してください
  2
TEIKAKU3
 70
     0
  0
ATTDEF
  5
2101
330
20FA
100
AcDbEntity
  8
ZOKUSEI
100
AcDbText
 10
50.00000000000182
 20
-189.9999980000002
 30
0.0
 40
25.0
  1
(EG53A)
 41
0.7
  7
M7
100
AcDbAttributeDefinition
  3
型式を入力してください:
  2
KATA
 70
     0
  0
LWPOLYLINE
  5
2102
330
20FA
100
AcDbEntity
  8
SIN-JIS
  6
HIDDEN
100
AcDbPolyline
 90
        4
 70
     0
 43
0.0
 10
-15.625
 20
-79.99999900000013
 10
20.0
 20
-79.99999900000013
 10
20.0
 20
-164.9999980000002
 10
10.0
 20
-164.9999980000002
  0
LINE
  5
2103
330
20FA
100
AcDbEntity
  8
SIN-JIS
  6
ByBlock
100
AcDbLine
 10
-25.0
 20
-50.0
 30
0.0
 11
0.0
 21
-129.999999
 31
0.0
  0
ARC
  5
2104
330
20FA
100
AcDbEntity
  8
KYU-JIS
  6
ByBlock
100
AcDbCircle
 10
-35.83328199999959
 20
-99.99999900000013
 30
0.0
 40
60.83331999999999
100
AcDbArc
 50
321.841156
 51
38.15884
  0
LWPOLYLINE
  5
2105
330
20FA
100
AcDbEntity
  8
KYU-JIS
  6
ByBlock
100
AcDbPolyline
 90
        5
 70
     0
 43
0.0
 10
20.0
 20
-159.9999980000001
 10
-20.0
 20
-167.4999980000002
 10
20.0
 20
-174.9999980000002
 10
-20.0
 20
-182.4999980000002
 10
20.0
 20
-189.9999980000002
  0
LINE
  5
2106
330
20FA
100
AcDbEntity
  8
KYU-JIS
  6
ByBlock
100
AcDbLine
 10
0.0
 20
-149.9999980000002
 30
0.0
 11
0.0
 21
-199.9999980000002
 31
0.0
  0
ARC
  5
2107
330
20FA
100
AcDbEntity
  8
SIN-JIS
  6
ByBlock
100
AcDbCircle
 10
-10.0
 20
-157.4999980000002
 30
0.0
 40
7.5
100
AcDbArc
 50
90.0
 51
270.0
  0
LINE
  5
2108
330
20FA
100
AcDbEntity
  8
SIN-JIS
  6
ByBlock
100
AcDbLine
 10
0.0
 20
-129.999999
 30
0.0
 11
0.0
 21
-199.9999980000002
 31
0.0
  0
ARC
  5
2109
330
20FA
100
AcDbEntity
  8
SIN-JIS
  6
ByBlock
100
AcDbCircle
 10
-10.0
 20
-172.4999980000001
 30
0.0
 40
7.5
100
AcDbArc
 50
90.0
 51
270.0
  0
LINE
  5
210A
330
20FA
100
AcDbEntity
  8
SIN-JIS
  6
ByBlock
100
AcDbLine
 10
-10.0
 20
-164.9999980000002
 30
0.0
 11
10.0
 21
-164.9999980000002
 31
0.0
  0
LINE
  5
210B
330
20FA
100
AcDbEntity
  8
SIN-JIS
  6
ByBlock
100
AcDbLine
 10
-10.0
 20
-179.9999980000002
 30
0.0
 11
10.0
 21
-179.9999980000002
 31
0.0
  0
LINE
  5
210C
330
20FA
100
AcDbEntity
  8
SIN-JIS
  6
ByBlock
100
AcDbLine
 10
-10.0
 20
-149.9999980000002
 30
0.0
 11
10.0
 21
-149.9999980000002
 31
0.0
  0
CIRCLE
  5
210D
330
20FA
100
AcDbEntity
  8
KYU-JIS
  6
ByBlock
100
AcDbCircle
 10
0.0
 20
-141.9999679999999
 30
0.0
 40
8.0
  0
LWPOLYLINE
  5
210E
330
20FA
100
AcDbEntity
  8
KYU-JIS
  6
ByBlock
100
AcDbPolyline
 90
        4
 70
     0
 43
0.0
 10
25.0
 20
-99.99999900000013
 10
30.0
 20
-99.99999900000013
 10
30.0
 20
-174.9999980000002
 10
20.0
 20
-174.9999980000002
  0
LINE
  5
210F
330
20FA
100
AcDbEntity
  8
SIN-JIS
  6
ByBlock
100
AcDbLine
 10
0.0
 20
0.0
 30
0.0
 11
0.0
 21
-60.0
 31
0.0
  0
LINE
  5
2110
330
20FA
100
AcDbEntity
  8
KYU-JIS
  6
ByBlock
100
AcDbLine
 10
0.0
 20
0.0
 30
0.0
 11
0.0
 21
-50.0
 31
0.0
  0
LINE
  5
2111
330
20FA
100
AcDbEntity
  8
SIN-JIS
  6
ByBlock
100
AcDbLine
 10
-7.999878000000535
 20
-68.00003000000015
 30
0.0
 11
7.999877999999624
 21
-51.99996899999996
 31
0.0
  0
LINE
  5
2112
330
20FA
100
AcDbEntity
  8
SIN-JIS
  6
ByBlock
100
AcDbLine
 10
-7.999878000000535
 20
-51.99996899999996
 30
0.0
 11
7.999877999999624
 21
-68.00003000000015
 31
0.0
  0
CIRCLE
  5
2113
330
20FA
100
AcDbEntity
  8
KYU-JIS
  6
ByBlock
100
AcDbCircle
 10
0.0
 20
-58.00003000000015
 30
0.0
 40
8.0
  0
ENDBLK
  5
2115
330
20FA
100
AcDbEntity
  8
0
100
AcDbBlockEnd
  0
BLOCK
  5
2128
330
211F
100
AcDbEntity
  8
0
100
AcDbBlockBegin
  2
AP04
 70
     2
 10
0.0
 20
0.0
 30
0.0
  3
AP04
  1

  0
ATTDEF
  5
2120
330
211F
100
AcDbEntity
  8
ZOKUSEI
  6
Continuous
100
AcDbText
 10
-6.5
 20
-102.0
 30
0.0
 40
30.0
  1
A
 41
0.7
  7
M7
 72
     1
 11
0.5
 21
-87.0
 31
0.0
100
AcDbAttributeDefinition
  3

  2
KIGO
 70
     8
 74
     2
  0
ATTDEF
  5
2121
330
211F
100
AcDbEntity
  8
ZOKUSEI
  6
Continuous
100
AcDbText
 10
-8.095238095238549
 20
-137.585882547095
 30
0.0
 40
25.0
  1
1
 41
0.8
  7
M8
 72
     1
 11
-0.0000000000004547
 21
-137.585882547095
 31
0.0
100
AcDbAttributeDefinition
  3
番号を入れるナリ
  2
BANGO
 70
     0
  0
ATTDEF
  5
2122
330
211F
100
AcDbEntity
  8
ZOKUSEI
100
AcDbText
 10
50.0
 20
-82.5
 30
0.0
 40
25.0
  1
20A
 41
0.7
  7
M7
 11
50.0
 21
-70.0
 31
0.0
100
AcDbAttributeDefinition
  3
定格電流を入力してくだされい
  2
TEIKAKU1
 70
     0
 74
     2
  0
ATTDEF
  5
2123
330
211F
100
AcDbEntity
  8
ZOKUSEI
100
AcDbText
 10
50.0
 20
-112.5
 30
0.0
 40
25.0
  1
2倍延長目盛
 41
0.7
  7
M7
 11
50.0
 21
-100.0
 31
0.0
100
AcDbAttributeDefinition
  3
公称を入力するべし
  2
TEIKAKU2
 70
     0
 74
     2
  0
ATTDEF
  5
2124
330
211F
100
AcDbEntity
  8
ZOKUSEI
100
AcDbText
 10
50.0
 20
-142.5
 30
0.0
 40
25.0
  1
赤色指針付
 41
0.7
  7
M7
 11
50.0
 21
-130.0
 31
0.0
100
AcDbAttributeDefinition
  3
オプションを入力するっちゃ
  2
TEIKAKU3
 70
     0
 74
     2
  0
CIRCLE
  5
2125
330
211F
100
AcDbEntity
  8
LAY-1
  6
ByBlock
 62
     3
100
AcDbCircle
 10
0.0
 20
-100.0
 30
0.0
 40
44.999999
  0
LINE
  5
2126
330
211F
100
AcDbEntity
  8
LAY-1
  6
ByBlock
 62
     3
100
AcDbLine
 10
0.0
 20
-144.999999
 30
0.0
 11
0.0
 21
-200.0
 31
0.0
  0
LINE
  5
2127
330
211F
100
AcDbEntity
  8
LAY-1
  6
ByBlock
 62
     3
100
AcDbLine
 10
0.0
 20
0.0
 30
0.0
 11
0.0
 21
-55.00000099999988
 31
0.0
  0
ENDBLK
  5
2129
330
211F
100
AcDbEntity
  8
0
100
AcDbBlockEnd
  0
BLOCK
  5
2156
330
2143
100
AcDbEntity
  8
0
100
AcDbBlockBegin
  2
AP06
 70
     2
 10
0.0
 20
0.0
 30
0.0
  3
AP06
  1

  0
ATTDEF
  5
2144
330
2143
100
AcDbEntity
  8
ZOKUSEI
  6
Continuous
100
AcDbText
 10
25.0
 20
-62.49999900000012
 30
0.0
 40
25.0
  1
52
 41
0.7
  7
M7
 11
25.0
 21
-49.99999900000012
 31
0.0
100
AcDbAttributeDefinition
  3
記号
  2
KIGO
 70
     8
 74
     2
  0
ATTDEF
  5
2145
330
2143
100
AcDbEntity
  8
ZOKUSEI
  6
Continuous
100
AcDbText
 10
25.0
 20
-99.49999900000014
 30
0.0
 40
25.0
  1
1
 41
0.7
  7
M7
 11
25.0
 21
-86.99999900000014
 31
0.0
100
AcDbAttributeDefinition
  3
番号
  2
BANGO
 70
     0
 74
     2
  0
ATTDEF
  5
2146
330
2143
100
AcDbEntity
  8
ZOKUSEI
  6
Continuous
100
AcDbText
 10
25.0
 20
-137.4999990000001
 30
0.0
 40
25.0
  1
(SW-05/2E)
 41
0.7
  7
M7
 11
25.0
 21
-124.999999
 31
0.0
100
AcDbAttributeDefinition
  3
型式
  2
KATASIKI
 70
     0
 74
     2
  0
ATTDEF
  5
2147
330
2143
100
AcDbEntity
  8
ZOKUSEI
  6
Continuous
100
AcDbText
 10
25.0
 20
-175.0
 30
0.0
 40
25.0
  1
49
 41
0.7
  7
M7
 11
25.0
 21
-162.5
 31
0.0
100
AcDbAttributeDefinition
  3

  2
KIGO
 70
     8
 74
     2
  0
ATTDEF
  5
2148
330
2143
100
AcDbEntity
  8
ZOKUSEI
  6
Continuous
100
AcDbText
 10
88.0
 20
-175.0
 30
0.0
 40
25.0
  1
1
 41
0.7
  7
M7
 11
88.0
 21
-162.5
 31
0.0
100
AcDbAttributeDefinition
  3
番号を入力してってばー
  2
BANGO
 70
     0
 74
     2
  0
ATTDEF
  5
2149
330
2143
100
AcDbEntity
  8
ZOKUSEI
  6
Continuous
100
AcDbText
 10
25.0
 20
-212.9999999999999
 30
0.0
 40
25.0
  1
(2.8～4.2A)
 41
0.7
  7
M7
 11
25.0
 21
-200.4999999999999
 31
0.0
100
AcDbAttributeDefinition
  3
定格を入力しろっての！
  2
TEIKAKU1
 70
     0
 74
     2
  0
ATTDEF
  5
214A
330
2143
100
AcDbEntity
  8
ZOKUSEI
  6
Continuous
100
AcDbText
 10
25.0
 20
-250.0
 30
0.0
 40
25.0
  1
2E
 41
0.7
  7
M7
 11
25.0
 21
-237.5
 31
0.0
100
AcDbAttributeDefinition
  3

  2
TEIKAKU2
 70
     8
 74
     2
  0
LWPOLYLINE
  5
214B
330
2143
100
AcDbEntity
  8
LAY-1
  6
ByBlock
 62
     3
100
AcDbPolyline
 90
        6
 70
     0
 43
0.0
 10
0.0
 20
-150.0
 10
0.0
 20
-189.999999
 10
20.0
 20
-189.999999
 10
20.0
 20
-209.9999979999997
 10
0.0
 20
-209.9999979999997
 10
0.0
 20
-249.9999979999997
  0
LINE
  5
214C
330
2143
100
AcDbEntity
  8
SIN-JIS
  6
ByBlock
100
AcDbLine
 10
-20.0
 20
-44.99999900000012
 30
0.0
 11
0.0
 21
-99.99999800000024
 31
0.0
  0
CIRCLE
  5
214D
330
2143
100
AcDbEntity
  8
KYU-JIS
  6
ByBlock
 62
     3
100
AcDbCircle
 10
0.0
 20
-99.99999800000024
 30
0.0
 40
8.0
  0
LINE
  5
214E
330
2143
100
AcDbEntity
  8
KYU-JIS
  6
ByBlock
 62
     3
100
AcDbLine
 10
0.0
 20
-149.999999
 30
0.0
 11
0.0
 21
-107.999878
 31
0.0
  0
LINE
  5
214F
330
2143
100
AcDbEntity
  8
SIN-JIS
  6
ByBlock
100
AcDbLine
 10
0.0
 20
-99.99999800000024
 30
0.0
 11
0.0
 21
-149.9999980000002
 31
0.0
  0
LINE
  5
2150
330
2143
100
AcDbEntity
  8
KYU-JIS
  6
ByBlock
 62
     3
100
AcDbLine
 10
0.0
 20
-42.00012100000003
 30
0.0
 11
0.0
 21
0.0
 31
0.0
  0
LINE
  5
2151
330
2143
100
AcDbEntity
  8
SIN-JIS
  6
ByBlock
100
AcDbLine
 10
0.0
 20
-0.0000000000004547
 30
0.0
 11
0.0
 21
-59.99999900000012
 31
0.0
  0
CIRCLE
  5
2152
330
2143
100
AcDbEntity
  8
KYU-JIS
  6
ByBlock
 62
     3
100
AcDbCircle
 10
0.0
 20
-49.99999900000012
 30
0.0
 40
8.0
  0
ARC
  5
2153
330
2143
100
AcDbEntity
  8
SIN-JIS
  6
ByBlock
100
AcDbCircle
 10
0.0
 20
-52.00012100000003
 30
0.0
 40
7.999877999999998
100
AcDbArc
 50
90.0
 51
270.0
  0
LINE
  5
2154
330
2143
100
AcDbEntity
  8
KYU-JIS
  6
ByBlock
 62
     3
100
AcDbLine
 10
23.90502899999955
 20
-44.19036800000003
 30
0.0
 11
0.0
 21
-92.00012000000015
 31
0.0
  0
ARC
  5
2155
330
2143
100
AcDbEntity
  8
KYU-JIS
  6
ByBlock
 62
     3
100
AcDbCircle
 10
20.0
 20
-49.99999900000012
 30
0.0
 40
7.0
100
AcDbArc
 50
56.09239599999999
 51
250.7774959999999
  0
ENDBLK
  5
2157
330
2143
100
AcDbEntity
  8
0
100
AcDbBlockEnd
  0
BLOCK
  5
2166
330
2162
100
AcDbEntity
  8
0
100
AcDbBlockBegin
  2
AL01
 70
     0
 10
0.0
 20
0.0
 30
0.0
  3
AL01
  1

  0
CIRCLE
  5
2163
330
2162
100
AcDbEntity
  8
JIS
  6
Continuous
 62
     7
100
AcDbCircle
 10
0.0000000000006821
 20
-49.99999999999864
 30
0.0
 40
10.0
  0
CIRCLE
  5
2164
330
2162
100
AcDbEntity
  8
JIS
  6
Continuous
 62
     7
100
AcDbCircle
 10
0.0000000000006821
 20
-49.99999999999864
 30
0.0
 40
5.0
  0
LINE
  5
2165
330
2162
100
AcDbEntity
  8
JIS
  6
ByBlock
 62
     7
100
AcDbLine
 10
0.0000000000006821
 20
-39.99999999999953
 30
0.0
 11
0.0000000000006821
 21
0.0000000000004547
 31
0.0
  0
ENDBLK
  5
2167
330
2162
100
AcDbEntity
  8
0
100
AcDbBlockEnd
  0
BLOCK
  5
217D
330
216F
100
AcDbEntity
  8
0
100
AcDbBlockBegin
  2
AP09
 70
     2
 10
0.0
 20
0.0
 30
0.0
  3
AP09
  1

  0
ATTDEF
  5
2170
330
216F
100
AcDbEntity
  8
ZOKUSEI
100
AcDbText
 10
-39.58333333333333
 20
-137.5
 30
0.0
 40
25.0
  1
SC
 41
0.7
  7
M7
 72
     1
 11
-25.0
 21
-125.0
 31
0.0
100
AcDbAttributeDefinition
  3
文字記号を入力してください
  2
KIGO
 70
     8
 74
     2
  0
ATTDEF
  5
2171
330
216F
100
AcDbEntity
  8
ZOKUSEI
100
AcDbText
 10
25.0
 20
-137.5
 30
0.0
 40
25.0
  1
1
 41
0.7
  7
M7
 11
25.0
 21
-125.0
 31
0.0
100
AcDbAttributeDefinition
  3
番号を入力してください
  2
BANGO
 70
     0
 74
     2
  0
ATTDEF
  5
2172
330
216F
100
AcDbEntity
  8
ZOKUSEI
100
AcDbText
 10
-42.58333333333334
 20
-162.5
 30
0.0
 40
25.0
  1
100μF
 41
0.7
  7
M7
 72
     1
 11
0.0
 21
-150.0
 31
0.0
100
AcDbAttributeDefinition
  3
容量を入力してください
  2
TEIKAKU1
 70
     0
 74
     2
  0
LINE
  5
2173
330
216F
100
AcDbEntity
  8
JIS
  6
ByBlock
 62
     3
100
AcDbLine
 10
0.0
 20
-60.00003000000015
 30
0.0
 11
0.0
 21
-80.00003000000015
 31
0.0
  0
LINE
  5
2174
330
216F
100
AcDbEntity
  8
JIS
  6
ByBlock
 62
     3
100
AcDbLine
 10
49.99999900000012
 20
-0.0000310000000354
 30
0.0
 11
49.99999900000012
 21
-100.0000300000001
 31
0.0
  0
LINE
  5
2175
330
216F
100
AcDbEntity
  8
JIS
  6
ByBlock
 62
     3
100
AcDbLine
 10
-49.99999900000012
 20
-100.0000300000001
 30
0.0
 11
-49.99999900000012
 21
-0.0000310000000354
 31
0.0
  0
LINE
  5
2176
330
216F
100
AcDbEntity
  8
JIS
  6
ByBlock
 62
     3
100
AcDbLine
 10
49.99999900000012
 20
-100.0000300000001
 30
0.0
 11
-49.99999900000012
 21
-100.0000300000001
 31
0.0
  0
LINE
  5
2177
330
216F
100
AcDbEntity
  8
JIS
  6
ByBlock
 62
     3
100
AcDbLine
 10
-49.99999900000012
 20
-0.0000310000000354
 30
0.0
 11
49.99999900000012
 21
-0.0000310000000354
 31
0.0
  0
LWPOLYLINE
  5
2178
330
216F
100
AcDbEntity
  8
JIS
  6
ByBlock
 62
     3
100
AcDbPolyline
 90
        2
 70
     0
 43
5.0
 10
-20.0
 20
-57.50003000000015
 10
20.0
 20
-57.50003000000015
  0
TRACE
  5
2179
330
216F
100
AcDbEntity
  8
JIS
 62
     3
100
AcDbTrace
 10
-20.0
 20
-55.00003000000015
 30
0.0
 11
-20.0
 21
-60.00003000000015
 31
0.0
 12
20.0
 22
-55.00003000000015
 32
0.0
 13
20.0
 23
-60.00003000000015
 33
0.0
  0
LWPOLYLINE
  5
217A
330
216F
100
AcDbEntity
  8
JIS
  6
ByBlock
 62
     3
100
AcDbPolyline
 90
        2
 70
     0
 43
5.0
 10
-20.0
 20
-42.50003000000014
 10
20.0
 20
-42.50003000000014
  0
TRACE
  5
217B
330
216F
100
AcDbEntity
  8
JIS
 62
     3
100
AcDbTrace
 10
-20.0
 20
-40.00003000000014
 30
0.0
 11
-20.0
 21
-45.00003000000015
 31
0.0
 12
20.0
 22
-40.00003000000014
 32
0.0
 13
20.0
 23
-45.00003000000015
 33
0.0
  0
LINE
  5
217C
330
216F
100
AcDbEntity
  8
JIS
  6
ByBlock
 62
     3
100
AcDbLine
 10
0.0
 20
-40.00003000000014
 30
0.0
 11
0.0
 21
-20.00003100000003
 31
0.0
  0
ENDBLK
  5
217E
330
216F
100
AcDbEntity
  8
0
100
AcDbBlockEnd
  0
BLOCK
  5
2222
330
2214
100
AcDbEntity
  8
0
100
AcDbBlockBegin
  2
AJ03
 70
     2
 10
0.0
 20
0.0
 30
0.0
  3
AJ03
  1

  0
ATTDEF
  5
2215
330
2214
100
AcDbEntity
  8
ZOKUSEI
  6
Continuous
100
AcDbText
 10
35.41666566666632
 20
-70.0
 30
0.0
 40
25.0
  1
49
 41
0.7
  7
M7
 72
     1
 11
49.99999899999965
 21
-70.0
 31
0.0
100
AcDbAttributeDefinition
  3
文字記号を入力してください
  2
KIGO
 70
     0
  0
ATTDEF
  5
2216
330
2214
100
AcDbEntity
  8
ZOKUSEI
  6
Continuous
100
AcDbText
 10
45.62499899999965
 20
-109.9999990000001
 30
0.0
 40
25.0
  1
1
 41
0.7
  7
M7
 72
     1
 11
49.99999899999965
 21
-109.9999990000001
 31
0.0
100
AcDbAttributeDefinition
  3
番号を入力してください
  2
BANGO
 70
     0
  0
LINE
  5
2217
330
2214
100
AcDbEntity
  8
KYU-JIS
  6
ByBlock
100
AcDbLine
 10
0.0
 20
-42.0001219999999
 30
0.0
 11
0.0
 21
-0.0000009999998838
 31
0.0
  0
LINE
  5
2218
330
2214
100
AcDbEntity
  8
SIN-JIS
  6
ByBlock
100
AcDbLine
 10
0.0
 20
-0.0000009999998838
 30
0.0
 11
0.0
 21
-52.99987800000007
 31
0.0
  0
CIRCLE
  5
2219
330
2214
100
AcDbEntity
  8
KYU-JIS
  6
ByBlock
100
AcDbCircle
 10
0.0
 20
-99.99999900000013
 30
0.0
 40
8.0
  0
LINE
  5
221A
330
2214
100
AcDbEntity
  8
SIN-JIS
  6
ByBlock
100
AcDbLine
 10
-20.0
 20
-50.0
 30
0.0
 11
0.0
 21
-99.99999900000013
 31
0.0
  0
LINE
  5
221B
330
2214
100
AcDbEntity
  8
KYU-JIS
  6
ByBlock
100
AcDbLine
 10
15.0
 20
-42.0001219999999
 30
0.0
 11
15.0
 21
-107.9998770000001
 31
0.0
  0
LINE
  5
221C
330
2214
100
AcDbEntity
  8
SIN-JIS
  6
ByBlock
100
AcDbLine
 10
0.0
 20
-99.99999900000013
 30
0.0
 11
0.0
 21
-149.999999
 31
0.0
  0
LINE
  5
221D
330
2214
100
AcDbEntity
  8
KYU-JIS
  6
ByBlock
100
AcDbLine
 10
0.0
 20
-107.9998770000001
 30
0.0
 11
0.0
 21
-149.999999
 31
0.0
  0
CIRCLE
  5
221E
330
2214
100
AcDbEntity
  8
KYU-JIS
  6
ByBlock
100
AcDbCircle
 10
0.0
 20
-50.0
 30
0.0
 40
8.0
  0
CIRCLE
  5
221F
330
2214
100
AcDbEntity
  8
SIN-JIS
  6
ByBlock
100
AcDbCircle
 10
0.0
 20
-60.0
 30
0.0
 40
7.0
  0
LINE
  5
2220
330
2214
100
AcDbEntity
  8
KYU-JIS
  6
ByBlock
100
AcDbLine
 10
5.0
 20
-84.99999900000011
 30
0.0
 11
25.0
 21
-65.0
 31
0.0
  0
LINE
  5
2221
330
2214
100
AcDbEntity
  8
KYU-JIS
  6
ByBlock
100
AcDbLine
 10
5.0
 20
-65.0
 30
0.0
 11
25.0
 21
-84.99999900000011
 31
0.0
  0
ENDBLK
  5
2223
330
2214
100
AcDbEntity
  8
0
100
AcDbBlockEnd
  0
BLOCK
  5
22AA
330
22A6
100
AcDbEntity
  8
0
 62
     7
100
AcDbBlockBegin
  2
P10
 70
     0
 10
0.0
 20
0.0
 30
0.0
  3
P10
  1

  0
LINE
  5
22A7
330
22A6
100
AcDbEntity
  8
JIS
  6
Continuous
 62
     7
100
AcDbLine
 10
-10.0
 20
-10.0
 30
0.0
 11
10.0
 21
-10.0
 31
0.0
  0
LINE
  5
22A8
330
22A6
100
AcDbEntity
  8
JIS
  6
Continuous
 62
     7
100
AcDbLine
 10
-20.0
 20
0.0
 30
0.0
 11
20.0
 21
0.0
 31
0.0
  0
LINE
  5
22A9
330
22A6
100
AcDbEntity
  8
JIS
  6
Continuous
 62
     7
100
AcDbLine
 10
-5.0
 20
-20.0
 30
0.0
 11
5.0
 21
-20.0
 31
0.0
  0
ENDBLK
  5
22AB
330
22A6
100
AcDbEntity
  8
0
 62
     7
100
AcDbBlockEnd
  0
BLOCK
  5
22AE
330
22AC
100
AcDbEntity
  8
0
100
AcDbBlockBegin
  2
AN07
 70
     0
 10
0.0
 20
0.0
 30
0.0
  3
AN07
  1

  0
INSERT
  5
22AD
330
22AC
100
AcDbEntity
  8
C-CIRCUIT
  6
ByBlock
 62
     7
100
AcDbBlockReference
  2
P10
 10
0.0
 20
0.0
 30
0.0
  0
ENDBLK
  5
22AF
330
22AC
100
AcDbEntity
  8
0
100
AcDbBlockEnd
  0
BLOCK
  5
26BE
330
26BB
100
AcDbEntity
  8
0
100
AcDbBlockBegin
  2
UPARO1
 70
     0
 10
0.0
 20
0.0
 30
0.0
  3
UPARO1
  1

  0
SOLID
  5
26BC
330
26BB
100
AcDbEntity
  8
0
  6
ByBlock
 62
     0
100
AcDbTrace
 10
-2.5
 20
-0.4166666666665151
 30
0.0
 11
-2.5
 21
0.4166666666665151
 31
0.0
 12
0.0
 22
0.0
 32
0.0
 13
0.0
 23
0.0
 33
0.0
  0
LINE
  5
26BD
330
26BB
100
AcDbEntity
  8
0
  6
ByBlock
 62
     0
100
AcDbLine
 10
-2.5
 20
0.0
 30
0.0
 11
-5.0
 21
0.0
 31
0.0
  0
ENDBLK
  5
26BF
330
26BB
100
AcDbEntity
  8
0
100
AcDbBlockEnd
  0
BLOCK
  5
26C3
330
26C0
100
AcDbEntity
  8
0
100
AcDbBlockBegin
  2
TB-EU
 70
     0
 10
0.0
 20
0.0
 30
0.0
  3
TB-EU
  1

  0
CIRCLE
  5
26C1
330
26C0
100
AcDbEntity
  8
CONTROL-CIRCUIT
  6
Continuous
100
AcDbCircle
 10
0.0
 20
0.0
 30
0.0
 40
10.0
  0
LINE
  5
26C2
330
26C0
100
AcDbEntity
  8
CONTROL-CIRCUIT
  6
Continuous
100
AcDbLine
 10
0.0
 20
10.0
 30
0.0
 11
0.0
 21
25.0
 31
0.0
  0
ENDBLK
  5
26C4
330
26C0
100
AcDbEntity
  8
0
100
AcDbBlockEnd
  0
BLOCK
  5
26C8
330
26C5
100
AcDbEntity
  8
0
100
AcDbBlockBegin
  2
TB-ED
 70
     0
 10
0.0
 20
0.0
 30
0.0
  3
TB-ED
  1

  0
CIRCLE
  5
26C6
330
26C5
100
AcDbEntity
  8
CONTROL-CIRCUIT
  6
Continuous
100
AcDbCircle
 10
0.0
 20
0.0
 30
0.0
 40
10.0
  0
LINE
  5
26C7
330
26C5
100
AcDbEntity
  8
CONTROL-CIRCUIT
  6
Continuous
100
AcDbLine
 10
0.0
 20
-10.0
 30
0.0
 11
0.0
 21
-25.0
 31
0.0
  0
ENDBLK
  5
26C9
330
26C5
100
AcDbEntity
  8
0
100
AcDbBlockEnd
  0
BLOCK
  5
26CD
330
26CA
100
AcDbEntity
  8
0
100
AcDbBlockBegin
  2
AM03
 70
     0
 10
0.0
 20
0.0
 30
0.0
  3
AM03
  1

  0
CIRCLE
  5
26CB
330
26CA
100
AcDbEntity
  8
JIS
  6
Continuous
 62
     7
100
AcDbCircle
 10
-0.0000000000002274
 20
-0.0000000000011369
 30
0.0
 40
10.0
  0
LINE
  5
26CC
330
26CA
100
AcDbEntity
  8
JIS
  6
ByBlock
 62
     7
100
AcDbLine
 10
-0.0000000000002274
 20
-10.00000000000021
 30
0.0
 11
-0.0000000000002274
 21
-25.0
 31
0.0
  0
ENDBLK
  5
26CE
330
26CA
100
AcDbEntity
  8
0
100
AcDbBlockEnd
  0
BLOCK
  5
26D2
330
26CF
100
AcDbEntity
  8
0
100
AcDbBlockBegin
  2
AL03
 70
     0
 10
0.0
 20
0.0
 30
0.0
  3
AL03
  1

  0
CIRCLE
  5
26D0
330
26CF
100
AcDbEntity
  8
JIS
  6
Continuous
 62
     7
100
AcDbCircle
 10
0.0
 20
0.0
 30
0.0
 40
10.0
  0
LINE
  5
26D1
330
26CF
100
AcDbEntity
  8
JIS
  6
ByBlock
 62
     7
100
AcDbLine
 10
0.0
 20
9.99999999999909
 30
0.0
 11
0.0
 21
24.99999999999886
 31
0.0
  0
ENDBLK
  5
26D3
330
26CF
100
AcDbEntity
  8
0
100
AcDbBlockEnd
  0
BLOCK
  5
26E0
330
26D4
100
AcDbEntity
  8
0
100
AcDbBlockBegin
  2
AY03
 70
     2
 10
0.0
 20
0.0
 30
0.0
  3
AY03
  1

  0
ATTDEF
  5
26D5
330
26D4
100
AcDbEntity
  8
ZOKUSEI
  6
ByBlock
100
AcDbText
 10
55.0
 20
105.0000089630634
 30
0.0
 40
25.0
  1
SA
 41
0.7
  7
M7
100
AcDbAttributeDefinition
  3
記号
  2
KIGO
 70
     8
  0
ATTDEF
  5
26D6
330
26D4
100
AcDbEntity
  8
ZOKUSEI
  6
ByBlock
100
AcDbText
 10
145.0
 20
105.0000089630634
 30
0.0
 40
25.0
  1
1
 41
0.7
  7
M7
100
AcDbAttributeDefinition
  3
番号を入力してください
  2
BANGO
 70
     0
  0
ATTDEF
  5
26D7
330
26D4
100
AcDbEntity
  8
ZOKUSEI
100
AcDbText
 10
55.0
 20
74.99999800000023
 30
0.0
 40
25.0
  1
20kA(8/20)
 41
0.7
  7
M7
100
AcDbAttributeDefinition
  3
放電電流を入力してください
  2
TEIKAKU1
 70
     0
  0
ATTDEF
  5
26D8
330
26D4
100
AcDbEntity
  8
ZOKUSEI
100
AcDbText
 10
55.0
 20
44.99999800000023
 30
0.0
 40
25.0
  1
≧1.5kV
 41
0.7
  7
M7
100
AcDbAttributeDefinition
  3
制限電圧を入力してください
  2
TEIKAKU2
 70
     0
  0
ATTDEF
  5
26D9
330
26D4
100
AcDbEntity
  8
ZOKUSEI
100
AcDbText
 10
54.99999899999965
 20
15.00000199999975
 30
0.0
 40
25.0
  1
(DEHNgapC/T)
 41
0.7
  7
M7
100
AcDbAttributeDefinition
  3
形式を入力してください:
  2
KATA
 70
     0
  0
LINE
  5
26DA
330
26D4
100
AcDbEntity
  8
JIS
  6
ByBlock
 62
     3
100
AcDbLine
 10
0.0
 20
105.0
 30
0.0
 11
0.0
 21
149.9999980000002
 31
0.0
  0
CIRCLE
  5
26DB
330
26D4
100
AcDbEntity
  8
JIS
  6
Continuous
 62
     3
100
AcDbCircle
 10
0.0
 20
75.0
 30
0.0
 40
45.99999799999999
  0
HATCH
  5
26DC
330
26D4
100
AcDbEntity
  8
JIS
  6
Continuous
 62
     3
100
AcDbHatch
 10
0.0
 20
0.0
 30
0.0
210
0.0
220
0.0
230
1.0
  2
ANSI31
 70
     0
 71
     0
 91
        1
 92
        7
 72
     0
 73
     1
 93
        3
 10
10.0
 20
45.0
 10
-10.0
 20
45.0
 10
0.0
 20
70.0
 97
        0
 75
     0
 76
     1
 52
0.0
 41
1.0
 77
     0
 78
     1
 53
315.0
 43
-2200.0
 44
2100.0
 45
-0.0883883476483184
 46
-0.0883883476483185
 79
     0
 47
0.2261904761904762
 98
        1
 10
0.0
 20
55.0
  0
LINE
  5
26DD
330
26D4
100
AcDbEntity
  8
JIS
  6
ByBlock
 62
     3
100
AcDbLine
 10
0.0
 20
45.0
 30
0.0
 11
0.0
 21
0.0
 31
0.0
  0
HATCH
  5
26DE
330
26D4
100
AcDbEntity
  8
JIS
  6
Continuous
 62
     3
100
AcDbHatch
 10
0.0
 20
0.0
 30
0.0
210
0.0
220
0.0
230
1.0
  2
ANSI31
 70
     0
 71
     0
 91
        1
 92
        7
 72
     1
 73
     1
 93
        2
 10
30.0
 20
65.0
 42
1.0
 10
20.0
 20
65.0
 42
1.0
 97
        0
 75
     0
 76
     1
 52
0.0
 41
1.0
 77
     0
 78
     1
 53
45.0
 43
-2200.0
 44
-1950.0
 45
-0.0883883476483184
 46
0.0883883476483185
 79
     0
 47
0.2261904761904762
 98
        1
 10
25.0
 20
65.0
  0
HATCH
  5
26DF
330
26D4
100
AcDbEntity
  8
JIS
  6
Continuous
 62
     3
100
AcDbHatch
 10
0.0
 20
0.0
 30
0.0
210
0.0
220
0.0
230
1.0
  2
ANSI31
 70
     0
 71
     0
 91
        1
 92
        7
 72
     0
 73
     1
 93
        3
 10
10.0
 20
105.0
 10
-10.0
 20
105.0
 10
0.0
 20
80.0
 97
        0
 75
     0
 76
     1
 52
0.0
 41
1.0
 77
     0
 78
     1
 53
45.0
 43
-2200.0
 44
-1950.0
 45
-0.0883883476483184
 46
0.0883883476483185
 79
     0
 47
0.2261904761904762
 98
        1
 10
0.0
 20
95.0
  0
ENDBLK
  5
26E1
330
26D4
100
AcDbEntity
  8
0
100
AcDbBlockEnd
  0
BLOCK
  5
26ED
330
26E2
100
AcDbEntity
  8
0
100
AcDbBlockBegin
  2
AY02
 70
     2
 10
0.0
 20
0.0
 30
0.0
  3
AY02
  1

  0
ATTDEF
  5
26E3
330
26E2
100
AcDbEntity
  8
ZOKUSEI
  6
ByBlock
100
AcDbText
 10
40.0
 20
105.0000109630631
 30
0.0
 40
25.0
  1
SA
 41
0.7
  7
M7
100
AcDbAttributeDefinition
  3
記号
  2
KIGO
 70
     8
  0
ATTDEF
  5
26E4
330
26E2
100
AcDbEntity
  8
ZOKUSEI
  6
ByBlock
100
AcDbText
 10
130.0
 20
105.0000109630631
 30
0.0
 40
25.0
  1
1
 41
0.7
  7
M7
100
AcDbAttributeDefinition
  3
番号を入力してください
  2
BANGO
 70
     0
  0
ATTDEF
  5
26E5
330
26E2
100
AcDbEntity
  8
ZOKUSEI
100
AcDbText
 10
40.0
 20
75.0
 30
0.0
 40
25.0
  1
15kA(8/20)
 41
0.7
  7
M7
100
AcDbAttributeDefinition
  3
放電電流を入力してください
  2
TEIKAKU1
 70
     0
  0
ATTDEF
  5
26E6
330
26E2
100
AcDbEntity
  8
ZOKUSEI
100
AcDbText
 10
40.0
 20
45.0
 30
0.0
 40
25.0
  1
≧750V
 41
0.7
  7
M7
100
AcDbAttributeDefinition
  3
制限電圧を入力してください
  2
TEIKAKU2
 70
     0
  0
ATTDEF
  5
26E7
330
26E2
100
AcDbEntity
  8
ZOKUSEI
100
AcDbText
 10
39.99999899999965
 20
15.00000399999953
 30
0.0
 40
25.0
  1
(DEHNguardT150FM)
 41
0.7
  7
M7
100
AcDbAttributeDefinition
  3
形式を入力してください:
  2
KATA
 70
     0
  0
LWPOLYLINE
  5
26E8
330
26E2
100
AcDbEntity
  8
JIS
  6
Continuous
 62
     3
100
AcDbPolyline
 90
        4
 70
     1
 43
0.0
 10
-19.99999969999999
 20
25.00000050000017
 10
20.00000030000001
 20
25.00000050000017
 10
20.00000030000001
 20
124.9999994999997
 10
-19.99999969999999
 20
124.9999994999997
  0
LINE
  5
26E9
330
26E2
100
AcDbEntity
  8
JIS
  6
Continuous
 62
     3
100
AcDbLine
 10
-29.99999969999999
 20
124.9999994999997
 30
0.0
 11
30.00000030000001
 21
24.99999949999982
 31
0.0
  0
LINE
  5
26EA
330
26E2
100
AcDbEntity
  8
JIS
  6
Continuous
 62
     3
100
AcDbLine
 10
0.0
 20
25.0
 30
0.0
 11
0.0
 21
0.0
 31
0.0
  0
LINE
  5
26EB
330
26E2
100
AcDbEntity
  8
JIS
  6
Continuous
 62
     3
100
AcDbLine
 10
30.00000030000001
 20
24.99999949999982
 30
0.0
 11
30.00000030000001
 21
14.99999949999983
 31
0.0
  0
LINE
  5
26EC
330
26E2
100
AcDbEntity
  8
JIS
  6
Continuous
 62
     3
100
AcDbLine
 10
0.0
 20
125.0
 30
0.0
 11
0.0
 21
150.0
 31
0.0
  0
ENDBLK
  5
26EE
330
26E2
100
AcDbEntity
  8
0
100
AcDbBlockEnd
  0
ENDSEC
  0
SECTION
  2
ENTITIES
  0
TEXT
  5
20C2
330
18
100
AcDbEntity
  8
LAY-1
  6
Continuous
 62
     7
100
AcDbText
 10
2337.083333333333
 20
1962.5
 30
0.0
 40
25.0
  1
(LED)
 41
0.7
  7
M7
 72
     1
 11
2375.0
 21
1975.0
 31
0.0
100
AcDbText
 73
     2
  0
INSERT
  5
20C3
330
18
100
AcDbEntity
  8
LAY-1
  6
Continuous
 62
     7
100
AcDbBlockReference
 66
     1
  2
AO02
 10
2300.0
 20
2025.0
 30
0.0
  0
ATTRIB
  5
20C4
330
20C3
100
AcDbEntity
  8
ZOKUSEI
  6
Continuous
100
AcDbText
 10
2360.416666666666
 20
2012.5
 30
0.0
 40
25.0
  1
WL
 41
0.7
  7
M7
 72
     4
 11
2375.0
 21
2025.0
 31
0.0
100
AcDbAttribute
  2
KIGO
 70
     0
  0
ATTRIB
  5
20C5
330
20C3
100
AcDbEntity
  8
ZOKUSEI
  6
Continuous
100
AcDbText
 10
2411.875
 20
1987.5
 30
0.0
 40
25.0
  1
01
 41
0.7
  7
M7
 72
     4
 11
2425.0
 21
2000.0
 31
0.0
100
AcDbAttribute
  2
BANGO
 70
     0
  0
SEQEND
  5
20C6
330
20C3
100
AcDbEntity
  8
LAY-1
  6
Continuous
 62
     7
  0
LINE
  5
20C7
330
18
100
AcDbEntity
  8
LAY-1
  6
Continuous
 62
     7
100
AcDbLine
 10
2100.0
 20
2075.0
 30
0.0
 11
2100.0
 21
1800.0
 31
0.0
  0
INSERT
  5
20C8
330
18
100
AcDbEntity
  8
LAY-1
  6
Continuous
 62
     7
100
AcDbBlockReference
 66
     1
  2
AQ02
 10
2100.0
 20
2025.0
 30
0.0
  0
ATTRIB
  5
20C9
330
20C8
100
AcDbEntity
  8
ZOKUSEI
  6
Continuous
100
AcDbText
 10
2183.333333333333
 20
2042.499999999999
 30
0.0
 40
25.0
  1
F
 41
0.7
  7
M7
 72
     2
 11
2195.0
 21
2055.0
 31
0.0
100
AcDbAttribute
  2
KIGO
 70
     8
 74
     2
  0
ATTRIB
  5
20CA
330
20C8
100
AcDbEntity
  8
ZOKUSEI
  6
Continuous
100
AcDbText
 10
2205.0
 20
2042.499999999999
 30
0.0
 40
25.0
  1
01
 41
0.7
  7
M7
 11
2205.0
 21
2055.0
 31
0.0
100
AcDbAttribute
  2
BANGO
 70
     0
 74
     2
  0
ATTRIB
  5
20CB
330
20C8
100
AcDbEntity
  8
ZOKUSEI
  6
Continuous
100
AcDbText
 10
2170.833333333333
 20
1982.499999999999
 30
0.0
 40
25.0
  1
(1A)
 41
0.7
  7
M7
 72
     1
 11
2200.0
 21
1995.0
 31
0.0
100
AcDbAttribute
  2
TEIKAKU
 70
     8
 74
     2
  0
SEQEND
  5
20CC
330
20C8
100
AcDbEntity
  8
LAY-1
  6
Continuous
 62
     7
  0
LWPOLYLINE
  5
20CD
330
18
100
AcDbEntity
  8
LAY-1
  6
Continuous
 62
     7
100
AcDbPolyline
 90
        2
 70
     1
 43
5.0
 10
2097.5
 20
2025.0
 42
1.0
 10
2102.5
 20
2025.0
 42
1.0
  0
TEXT
  5
20CE
330
18
100
AcDbEntity
  8
LAY-1
  6
Continuous
 62
     7
100
AcDbText
 10
2076.666666666666
 20
2137.5
 30
0.0
 40
25.0
  1
RST
 41
0.7
  7
M7
 72
     1
 11
2100.0
 21
2150.0
 31
0.0
100
AcDbText
 73
     2
  0
INSERT
  5
20CF
330
18
100
AcDbEntity
  8
LAY-1
  6
Continuous
 62
     7
100
AcDbBlockReference
  2
AM01
 10
2100.0
 20
2075.0
 30
0.0
  0
LWPOLYLINE
  5
20F8
330
18
100
AcDbEntity
  8
KUROMARU
  6
Continuous
100
AcDbPolyline
 90
        2
 70
     1
 43
5.0
 10
2097.5
 20
1600.0
 42
1.0
 10
2102.5
 20
1600.0
 42
1.0
  0
INSERT
  5
2168
330
18
100
AcDbEntity
  8
1
  6
Continuous
100
AcDbBlockReference
  2
AL01
 10
2100.0
 20
675.0
 30
0.0
  0
LINE
  5
216A
330
18
100
AcDbEntity
  8
1
  6
Continuous
100
AcDbLine
 10
2100.0
 20
800.0
 30
0.0
 11
2100.0
 21
675.0
 31
0.0
  0
INSERT
  5
216D
330
18
100
AcDbEntity
  8
1
  6
Continuous
100
AcDbBlockReference
  2
AL01
 10
2150.0
 20
675.0
 30
0.0
  0
LINE
  5
219E
330
18
100
AcDbEntity
  8
1
  6
Continuous
100
AcDbLine
 10
1025.0
 20
675.0
 30
0.0
 11
2750.0
 21
675.0
 31
0.0
  0
LINE
  5
21CC
330
18
100
AcDbEntity
  8
1
  6
Continuous
100
AcDbLine
 10
2400.0
 20
800.0
 30
0.0
 11
2400.0
 21
675.0
 31
0.0
  0
INSERT
  5
21D2
330
18
100
AcDbEntity
  8
1
  6
Continuous
100
AcDbBlockReference
  2
AL01
 10
2400.0
 20
675.0
 30
0.0
  0
LWPOLYLINE
  5
21E5
330
18
100
AcDbEntity
  8
KUROMARU
  6
Continuous
100
AcDbPolyline
 90
        2
 70
     1
 43
5.0
 10
2397.5
 20
1600.0
 42
1.0
 10
2402.5
 20
1600.0
 42
1.0
  0
LINE
  5
21ED
330
18
100
AcDbEntity
  8
1
  6
Continuous
100
AcDbLine
 10
2700.0
 20
800.0
 30
0.0
 11
2700.0
 21
675.0
 31
0.0
  0
INSERT
  5
21F1
330
18
100
AcDbEntity
  8
1
  6
Continuous
100
AcDbBlockReference
  2
AL01
 10
2700.0
 20
675.0
 30
0.0
  0
INSERT
  5
21F2
330
18
100
AcDbEntity
  8
1
  6
Continuous
100
AcDbBlockReference
  2
AL01
 10
2750.0
 20
675.0
 30
0.0
  0
LWPOLYLINE
  5
2235
330
18
100
AcDbEntity
  8
KUROMARU
  6
Continuous
100
AcDbPolyline
 90
        2
 70
     1
 43
5.0
 10
2147.5
 20
675.0
 42
1.0
 10
2152.5
 20
675.0
 42
1.0
  0
TEXT
  5
223B
330
18
100
AcDbEntity
  8
1
  6
Continuous
100
AcDbText
 10
3030.416666666666
 20
612.5
 30
0.0
 40
25.0
  1
UVW4
 41
0.7
  7
M7
 72
     1
 11
3062.5
 21
625.0
 31
0.0
100
AcDbText
 73
     2
  0
INSERT
  5
2245
330
18
100
AcDbEntity
  8
1
  6
Continuous
100
AcDbBlockReference
  2
AL01
 10
3000.0
 20
675.0
 30
0.0
  0
LINE
  5
224B
330
18
100
AcDbEntity
  8
1
  6
Continuous
100
AcDbLine
 10
3000.0
 20
800.0
 30
0.0
 11
3000.0
 21
675.0
 31
0.0
  0
ARC
  5
25F5
330
18
100
AcDbEntity
  8
KYU-JIS
  6
ByBlock
100
AcDbCircle
 10
614.1667180000004
 20
1925.000001
 30
0.0
 40
60.83331999999999
100
AcDbArc
 50
321.8411560000021
 51
38.15883999999607
  0
LWPOLYLINE
  5
25F6
330
18
100
AcDbEntity
  8
KYU-JIS
  6
ByBlock
100
AcDbPolyline
 90
        5
 70
     0
 43
0.0
 10
670.0
 20
1865.000001999998
 10
630.0
 20
1857.500001999999
 10
670.0
 20
1850.000001999999
 10
630.0
 20
1842.500001999999
 10
670.0
 20
1835.000002
  0
LINE
  5
25F7
330
18
100
AcDbEntity
  8
KYU-JIS
  6
ByBlock
100
AcDbLine
 10
650.0
 20
1875.000001999999
 30
0.0
 11
650.0
 21
1825.000001999999
 31
0.0
  0
CIRCLE
  5
25FE
330
18
100
AcDbEntity
  8
KYU-JIS
  6
ByBlock
100
AcDbCircle
 10
650.0
 20
1883.000031999999
 30
0.0
 40
8.0
  0
LWPOLYLINE
  5
25FF
330
18
100
AcDbEntity
  8
KYU-JIS
  6
ByBlock
100
AcDbPolyline
 90
        4
 70
     0
 43
0.0
 10
675.0
 20
1925.000001
 10
680.0
 20
1925.000001
 10
680.0
 20
1850.000001999999
 10
670.0
 20
1850.000001999999
  0
LINE
  5
2601
330
18
100
AcDbEntity
  8
KYU-JIS
  6
ByBlock
100
AcDbLine
 10
650.0
 20
2025.0
 30
0.0
 11
650.0
 21
1975.0
 31
0.0
  0
CIRCLE
  5
2604
330
18
100
AcDbEntity
  8
KYU-JIS
  6
ByBlock
100
AcDbCircle
 10
650.0
 20
1966.999969999999
 30
0.0
 40
8.0
  0
ARC
  5
260E
330
18
100
AcDbEntity
  8
KYU-JIS
  6
ByBlock
100
AcDbCircle
 10
1014.166718
 20
1925.000001
 30
0.0
 40
60.83331999999999
100
AcDbArc
 50
321.8411560000021
 51
38.15883999999607
  0
LWPOLYLINE
  5
260F
330
18
100
AcDbEntity
  8
KYU-JIS
  6
ByBlock
100
AcDbPolyline
 90
        5
 70
     0
 43
0.0
 10
1070.0
 20
1865.000001999998
 10
1030.0
 20
1857.500001999999
 10
1070.0
 20
1850.000001999999
 10
1030.0
 20
1842.500001999999
 10
1070.0
 20
1835.000002
  0
LINE
  5
2610
330
18
100
AcDbEntity
  8
KYU-JIS
  6
ByBlock
100
AcDbLine
 10
1050.0
 20
1875.000001999999
 30
0.0
 11
1050.0
 21
1825.000001999999
 31
0.0
  0
CIRCLE
  5
2617
330
18
100
AcDbEntity
  8
KYU-JIS
  6
ByBlock
100
AcDbCircle
 10
1050.0
 20
1883.000031999999
 30
0.0
 40
8.0
  0
LWPOLYLINE
  5
2618
330
18
100
AcDbEntity
  8
KYU-JIS
  6
ByBlock
100
AcDbPolyline
 90
        4
 70
     0
 43
0.0
 10
1075.0
 20
1925.000001
 10
1080.0
 20
1925.000001
 10
1080.0
 20
1850.000001999999
 10
1070.0
 20
1850.000001999999
  0
LINE
  5
261A
330
18
100
AcDbEntity
  8
KYU-JIS
  6
ByBlock
100
AcDbLine
 10
1050.0
 20
2025.0
 30
0.0
 11
1050.0
 21
1975.0
 31
0.0
  0
CIRCLE
  5
261D
330
18
100
AcDbEntity
  8
KYU-JIS
  6
ByBlock
100
AcDbCircle
 10
1050.0
 20
1966.999969999999
 30
0.0
 40
8.0
  0
LWPOLYLINE
  5
2629
330
18
100
AcDbEntity
  8
KUROMARU
  6
Continuous
100
AcDbPolyline
 90
        2
 70
     1
 43
5.0
 10
2697.5
 20
1600.0
 42
1.0
 10
2702.5
 20
1600.0
 42
1.0
  0
ARC
  5
2636
330
18
100
AcDbEntity
  8
KYU-JIS
  6
ByBlock
100
AcDbCircle
 10
614.1666800000002
 20
2125.000001
 30
0.0
 40
60.83331999999999
100
AcDbArc
 50
321.8412170000023
 51
38.15879799999936
  0
LINE
  5
2637
330
18
100
AcDbEntity
  8
SIN-JIS
  6
ByBlock
100
AcDbLine
 10
2075.0
 20
1750.0
 30
0.0
 11
2100.0
 21
1670.000001
 31
0.0
  0
CIRCLE
  5
2638
330
18
100
AcDbEntity
  8
KYU-JIS
  6
ByBlock
100
AcDbCircle
 10
650.0
 20
2083.000032
 30
0.0
 40
8.0
  0
LINE
  5
2639
330
18
100
AcDbEntity
  8
SIN-JIS
  6
ByBlock
100
AcDbLine
 10
2100.0
 20
1670.000001
 30
0.0
 11
2100.0
 21
1600.000001999999
 31
0.0
  0
LINE
  5
263A
330
18
100
AcDbEntity
  8
KYU-JIS
  6
ByBlock
100
AcDbLine
 10
650.0
 20
2075.000001999999
 30
0.0
 11
650.0
 21
2025.000002
 31
0.0
  0
LINE
  5
263B
330
18
100
AcDbEntity
  8
KYU-JIS
  6
ByBlock
100
AcDbLine
 10
650.0
 20
2225.0
 30
0.0
 11
650.0
 21
2175.0
 31
0.0
  0
LINE
  5
263C
330
18
100
AcDbEntity
  8
SIN-JIS
  6
ByBlock
100
AcDbLine
 10
2100.0
 20
1800.0
 30
0.0
 11
2100.0
 21
1740.0
 31
0.0
  0
CIRCLE
  5
263D
330
18
100
AcDbEntity
  8
KYU-JIS
  6
ByBlock
100
AcDbCircle
 10
650.0
 20
2166.999969999999
 30
0.0
 40
8.0
  0
LINE
  5
263E
330
18
100
AcDbEntity
  8
SIN-JIS
  6
ByBlock
100
AcDbLine
 10
2092.000121999999
 20
1748.000030999999
 30
0.0
 11
2107.999877999999
 21
1731.99997
 31
0.0
  0
LINE
  5
263F
330
18
100
AcDbEntity
  8
SIN-JIS
  6
ByBlock
100
AcDbLine
 10
2092.000121999999
 20
1731.99997
 30
0.0
 11
2107.999877999999
 21
1748.000030999999
 31
0.0
  0
CIRCLE
  5
2649
330
18
100
AcDbEntity
  8
KYU-JIS
  6
ByBlock
 62
     3
100
AcDbCircle
 10
650.0
 20
1375.000001999999
 30
0.0
 40
8.0
  0
LINE
  5
264A
330
18
100
AcDbEntity
  8
KYU-JIS
  6
ByBlock
 62
     3
100
AcDbLine
 10
650.0
 20
1325.000001
 30
0.0
 11
650.0
 21
1367.000122
 31
0.0
  0
LINE
  5
264C
330
18
100
AcDbEntity
  8
KYU-JIS
  6
ByBlock
 62
     3
100
AcDbLine
 10
650.0
 20
1432.999879
 30
0.0
 11
650.0
 21
1475.0
 31
0.0
  0
CIRCLE
  5
264E
330
18
100
AcDbEntity
  8
KYU-JIS
  6
ByBlock
 62
     3
100
AcDbCircle
 10
650.0
 20
1425.000000999999
 30
0.0
 40
8.0
  0
LINE
  5
2650
330
18
100
AcDbEntity
  8
KYU-JIS
  6
ByBlock
 62
     3
100
AcDbLine
 10
673.9050289999994
 20
1430.809632
 30
0.0
 11
650.0
 21
1382.999879999999
 31
0.0
  0
ARC
  5
2651
330
18
100
AcDbEntity
  8
KYU-JIS
  6
ByBlock
 62
     3
100
AcDbCircle
 10
670.0
 20
1425.000000999999
 30
0.0
 40
7.0
100
AcDbArc
 50
56.09239600000323
 51
250.7774959999988
  0
CIRCLE
  5
265B
330
18
100
AcDbEntity
  8
KYU-JIS
  6
ByBlock
 62
     3
100
AcDbCircle
 10
1450.0
 20
1375.000001999999
 30
0.0
 40
8.0
  0
LINE
  5
265C
330
18
100
AcDbEntity
  8
KYU-JIS
  6
ByBlock
 62
     3
100
AcDbLine
 10
1450.0
 20
1325.000001
 30
0.0
 11
1450.0
 21
1367.000122
 31
0.0
  0
LINE
  5
265E
330
18
100
AcDbEntity
  8
KYU-JIS
  6
ByBlock
 62
     3
100
AcDbLine
 10
1450.0
 20
1432.999879
 30
0.0
 11
1450.0
 21
1475.0
 31
0.0
  0
CIRCLE
  5
2660
330
18
100
AcDbEntity
  8
KYU-JIS
  6
ByBlock
 62
     3
100
AcDbCircle
 10
1450.0
 20
1425.000000999999
 30
0.0
 40
8.0
  0
LINE
  5
2662
330
18
100
AcDbEntity
  8
KYU-JIS
  6
ByBlock
 62
     3
100
AcDbLine
 10
1473.905028999999
 20
1430.809632
 30
0.0
 11
1450.0
 21
1382.999879999999
 31
0.0
  0
ARC
  5
2663
330
18
100
AcDbEntity
  8
KYU-JIS
  6
ByBlock
 62
     3
100
AcDbCircle
 10
1470.0
 20
1425.000000999999
 30
0.0
 40
7.0
100
AcDbArc
 50
56.09239600000323
 51
250.7774960000049
  0
CIRCLE
  5
266D
330
18
100
AcDbEntity
  8
KYU-JIS
  6
ByBlock
 62
     3
100
AcDbCircle
 10
1050.0
 20
1375.000001999999
 30
0.0
 40
8.0
  0
LINE
  5
266E
330
18
100
AcDbEntity
  8
KYU-JIS
  6
ByBlock
 62
     3
100
AcDbLine
 10
1050.0
 20
1325.000001
 30
0.0
 11
1050.0
 21
1367.000122
 31
0.0
  0
LINE
  5
2670
330
18
100
AcDbEntity
  8
KYU-JIS
  6
ByBlock
 62
     3
100
AcDbLine
 10
1050.0
 20
1432.999879
 30
0.0
 11
1050.0
 21
1475.0
 31
0.0
  0
CIRCLE
  5
2672
330
18
100
AcDbEntity
  8
KYU-JIS
  6
ByBlock
 62
     3
100
AcDbCircle
 10
1050.0
 20
1425.000000999999
 30
0.0
 40
8.0
  0
LINE
  5
2674
330
18
100
AcDbEntity
  8
KYU-JIS
  6
ByBlock
 62
     3
100
AcDbLine
 10
1073.905028999998
 20
1430.809632
 30
0.0
 11
1050.0
 21
1382.999879999999
 31
0.0
  0
ARC
  5
2675
330
18
100
AcDbEntity
  8
KYU-JIS
  6
ByBlock
 62
     3
100
AcDbCircle
 10
1070.0
 20
1425.000000999999
 30
0.0
 40
7.0
100
AcDbArc
 50
56.09239600000323
 51
250.7774960000049
  0
CIRCLE
  5
267F
330
18
100
AcDbEntity
  8
KYU-JIS
  6
ByBlock
 62
     3
100
AcDbCircle
 10
1850.0
 20
1375.000001999999
 30
0.0
 40
8.0
  0
LINE
  5
2680
330
18
100
AcDbEntity
  8
KYU-JIS
  6
ByBlock
 62
     3
100
AcDbLine
 10
1850.0
 20
1325.000001
 30
0.0
 11
1850.0
 21
1367.000122
 31
0.0
  0
LINE
  5
2682
330
18
100
AcDbEntity
  8
KYU-JIS
  6
ByBlock
 62
     3
100
AcDbLine
 10
1850.0
 20
1432.999879
 30
0.0
 11
1850.0
 21
1475.0
 31
0.0
  0
CIRCLE
  5
2684
330
18
100
AcDbEntity
  8
KYU-JIS
  6
ByBlock
 62
     3
100
AcDbCircle
 10
1850.0
 20
1425.000000999999
 30
0.0
 40
8.0
  0
LINE
  5
2686
330
18
100
AcDbEntity
  8
KYU-JIS
  6
ByBlock
 62
     3
100
AcDbLine
 10
1873.905028999999
 20
1430.809632
 30
0.0
 11
1850.0
 21
1382.999879999999
 31
0.0
  0
ARC
  5
2687
330
18
100
AcDbEntity
  8
KYU-JIS
  6
ByBlock
 62
     3
100
AcDbCircle
 10
1870.0
 20
1425.000000999999
 30
0.0
 40
7.0
100
AcDbArc
 50
56.09239600000323
 51
250.7774960000049
  0
LINE
  5
2807
330
18
100
AcDbEntity
  8
1
  6
Continuous
100
AcDbLine
 10
1812.5
 20
1925.0
 30
0.0
 11
1762.5
 21
1875.0
 31
0.0
  0
LINE
  5
2808
330
18
100
AcDbEntity
  8
1
  6
Continuous
100
AcDbLine
 10
1837.5
 20
1925.0
 30
0.0
 11
1787.5
 21
1875.0
 31
0.0
  0
LINE
  5
2809
330
18
100
AcDbEntity
  8
1
  6
Continuous
100
AcDbLine
 10
1862.5
 20
1925.0
 30
0.0
 11
1812.5
 21
1875.0
 31
0.0
  0
LINE
  5
2822
330
18
100
AcDbEntity
  8
1
  6
DOT
100
AcDbLine
 10
475.0
 20
612.4999976203088
 30
0.0
 11
475.0
 21
752.4999976203088
 31
0.0
  0
LINE
  5
2823
330
18
100
AcDbEntity
  8
1
  6
Continuous
 62
     3
100
AcDbLine
 10
475.0
 20
622.4999957822157
 30
0.0
 11
467.2354286469244
 21
651.4777705708874
 31
0.0
  0
LWPOLYLINE
  5
2825
330
18
100
AcDbEntity
  8
1
  6
Continuous
100
AcDbPolyline
 90
        4
 70
     1
 43
0.0
 10
400.0
 20
774.9999976203088
 10
650.0
 20
774.9999976203088
 10
650.0
 20
724.9999976203088
 10
400.0
 20
724.9999976203088
  0
CIRCLE
  5
2826
330
18
100
AcDbEntity
  8
1
  6
Continuous
100
AcDbCircle
 10
575.0
 20
749.9999976203088
 30
0.0
 40
10.0
  0
CIRCLE
  5
2828
330
18
100
AcDbEntity
  8
1
  6
Continuous
100
AcDbCircle
 10
625.0
 20
749.9999976203088
 30
0.0
 40
10.0
  0
POINT
  5
2830
330
18
100
AcDbEntity
  8
TEN
  6
Continuous
 62
     4
100
AcDbPoint
 10
3782.0
 20
103.0
 30
0.0
  0
POINT
  5
2831
330
18
100
AcDbEntity
  8
TEN
  6
Continuous
 62
     4
100
AcDbPoint
 10
3781.0
 20
215.0
 30
0.0
  0
POINT
  5
2832
330
18
100
AcDbEntity
  8
TEN
  6
Continuous
 62
     4
100
AcDbPoint
 10
4018.0
 20
80.12500000000001
 30
0.0
  0
POINT
  5
2833
330
18
100
AcDbEntity
  8
TEN
  6
Continuous
 62
     4
100
AcDbPoint
 10
3990.0
 20
124.375
 30
0.0
  0
POINT
  5
2834
330
18
100
AcDbEntity
  8
TEN
  6
Continuous
 62
     4
100
AcDbPoint
 10
1652.2
 20
187.3999999999999
 30
0.0
  0
POINT
  5
2835
330
18
100
AcDbEntity
  8
TEN
  6
Continuous
 62
     4
100
AcDbPoint
 10
1710.0
 20
187.1
 30
0.0
  0
POINT
  5
2836
330
18
100
AcDbEntity
  8
TEN
  6
Continuous
 62
     4
100
AcDbPoint
 10
1767.8
 20
186.8
 30
0.0
  0
LWPOLYLINE
  5
2837
102
{ACAD_REACTORS
330
289A
102
}
330
18
100
AcDbEntity
  8
WAKU
  6
Continuous
 62
     7
100
AcDbPolyline
 90
       70
 70
     1
 43
0.0
 10
1869.39
 20
108.4624190070458
 10
1868.950466641679
 20
107.893481361466
 10
1868.195926382809
 20
107.118483114415
 10
1867.36244213045
 20
106.4822917315619
 10
1866.466236707499
 20
105.9972899545159
 10
1865.524753733089
 20
105.6729177911879
 10
1864.55631810239
 20
105.5154887767669
 10
1863.579779313388
 20
105.5280670879479
 10
1862.61414458282
 20
105.71040790221
 10
1861.6782088923
 20
106.058962163013
 10
1860.79018916545
 20
106.5669456581459
 10
1859.967369696138
 20
107.224471066698
 10
1859.2257657294
 20
108.018740404517
 10
1858.57981174287
 20
108.934294122408
 10
1858.04208049616
 20
109.9533120086809
 10
1857.6230383163
 20
111.055960039295
 10
1857.33084138268
 20
112.220776424578
 10
1857.17117697625
 20
113.425089338548
 10
1857.14715278305
 20
114.6454582002218
 10
1857.259236406689
 20
115.858129917856
 10
1857.50524626691
 20
117.0395012158589
 10
1857.880394061639
 20
118.1665780457059
 10
1858.37737796575
 20
119.2174231389339
 10
1858.98652475288
 20
120.171582991124
 10
1859.695978073699
 20
121.0104859660919
 10
1860.49192922631
 20
121.717803771669
 10
1861.35888592692
 20
122.2797692713309
 10
1862.279973849489
 20
122.6854444458538
 10
1863.23726506533
 20
122.9269332894139
 10
1864.21212698983
 20
122.999535496362
 10
1865.18558504451
 20
122.9018379473209
 10
1866.138691975639
 20
122.6357422139559
 10
1867.05289664094
 20
122.2064275470369
 10
1867.910405086499
 20
121.622250068216
 10
1868.694526885819
 20
120.894580127628
 10
1869.39
 20
120.0375809929539
 10
1869.39
 20
124.8588111963589
 10
1868.15817603983
 20
125.5675242732629
 10
1866.85759997358
 20
126.0825913720409
 10
1865.51052501831
 20
126.3951995518288
 10
1864.14
 20
126.5
 10
1862.769474981689
 20
126.3951995518288
 10
1861.422400026419
 20
126.0825913720409
 10
1860.121823960168
 20
125.5675242732629
 10
1858.89
 20
124.8588111963589
 10
1857.74800499541
 20
123.968578418568
 10
1856.71537879754
 20
122.912058069535
 10
1855.809789926939
 20
121.7073275053569
 10
1855.04673326026
 20
120.375
 10
1854.439264908629
 20
118.9378720464719
 10
1853.99777882397
 20
117.4205333025059
 10
1853.72982895558
 20
115.8489458546959
 10
1853.64
 20
114.25
 10
1853.72982895558
 20
112.6510541453049
 10
1853.99777882397
 20
111.0794666974939
 10
1854.439264908629
 20
109.5621279535279
 10
1855.04673326026
 20
108.125
 10
1855.809789926939
 20
106.7926724946429
 10
1856.71537879754
 20
105.5879419304649
 10
1857.74800499541
 20
104.5314215814318
 10
1858.89
 20
103.6411888036409
 10
1860.121823960168
 20
102.9324757267369
 10
1861.422400026419
 20
102.4174086279589
 10
1862.769474981689
 20
102.104800448171
 10
1864.14
 20
102.0
 10
1865.51052501831
 20
102.104800448171
 10
1866.85759997358
 20
102.4174086279589
 10
1868.15817603983
 20
102.9324757267369
 10
1869.39
 20
103.6411888036409
 10
1869.39
 20
103.6411888036409
  0
LWPOLYLINE
  5
2838
102
{ACAD_REACTORS
330
289B
102
}
330
18
100
AcDbEntity
  8
WAKU
  6
Continuous
 62
     7
100
AcDbPolyline
 90
       46
 70
     0
 43
0.0
 10
1932.25
 20
114.25
 10
1932.19890736089
 20
115.4677646334009
 10
1932.04662390368
 20
116.6618268633989
 10
1931.79611365262
 20
117.8089456269129
 10
1931.45225250482
 20
118.8867935620409
 10
1931.02173332638
 20
119.8743915847568
 10
1930.512935683379
 20
120.7525172229269
 10
1929.935762743219
 20
121.504078759857
 10
1929.301448520639
 20
122.114447905118
 10
1928.62233922047
 20
122.571744517583
 10
1927.911652932749
 20
122.8670678388569
 10
1927.183222357689
 20
122.9946697364169
 10
1926.45122556785
 20
122.9520665844719
 10
1925.729910048099
 20
122.740087604915
 10
1925.03331538457
 20
122.3628587274589
 10
1924.375
 20
121.8277222831138
 10
1923.767777254538
 20
121.145094094059
 10
1923.223466048219
 20
120.328260741516
 10
1922.752660779529
 20
119.3931209575589
 10
1922.36452513749
 20
118.357876174377
 10
1922.066613740869
 20
117.2426762540998
 10
1921.864725096148
 20
116.0692272946549
 10
1921.762788736138
 20
114.8603691452608
 10
1921.762788736138
 20
113.6396308547388
 10
1921.864725096148
 20
112.430772705345
 10
1922.066613740869
 20
111.2573237458999
 10
1922.36452513749
 20
110.142123825624
 10
1922.752660779529
 20
109.106879042441
 10
1923.223466048219
 20
108.171739258484
 10
1923.767777254538
 20
107.3549059059409
 10
1924.375
 20
106.6722777168859
 10
1925.03331538457
 20
106.137141272541
 10
1925.729910048099
 20
105.7599123950849
 10
1926.45122556785
 20
105.5479334155279
 10
1927.183222357689
 20
105.5053302635828
 10
1927.911652932749
 20
105.632932161143
 10
1928.62233922047
 20
105.9282554824169
 10
1929.301448520639
 20
106.3855520948819
 10
1929.935762743219
 20
106.9959212401429
 10
1930.512935683379
 20
107.747482777073
 10
1931.02173332638
 20
108.625608415243
 10
1931.45225250482
 20
109.6132064379599
 10
1931.79611365262
 20
110.6910543730869
 10
1932.04662390368
 20
111.838173136601
 10
1932.19890736089
 20
113.032235366599
 10
1932.25
 20
114.25
  0
LWPOLYLINE
  5
2839
102
{ACAD_REACTORS
330
289B
102
}
330
18
100
AcDbEntity
  8
WAKU
  6
Continuous
 62
     7
100
AcDbPolyline
 90
       49
 70
     0
 43
0.0
 10
1927.0
 20
126.5
 10
1925.85789581807
 20
126.3951995518288
 10
1924.73533335535
 20
126.0825913720409
 10
1923.65151996681
 20
125.5675242732629
 10
1922.625
 20
124.8588111963589
 10
1921.67333749617
 20
123.968578418568
 10
1920.81281566462
 20
122.912058069535
 10
1920.05815827245
 20
121.7073275053569
 10
1919.42227771689
 20
120.375
 10
1918.91605409053
 20
118.9378720464719
 10
1918.54814901997
 20
117.4205333025059
 10
1918.324857462978
 20
115.8489458546959
 10
1918.25
 20
114.25
 10
1918.324857462978
 20
112.6510541453038
 10
1918.54814901997
 20
111.0794666974939
 10
1918.91605409053
 20
109.5621279535279
 10
1919.42227771689
 20
108.125
 10
1920.05815827245
 20
106.7926724946429
 10
1920.81281566462
 20
105.5879419304649
 10
1921.67333749617
 20
104.5314215814318
 10
1922.625
 20
103.6411888036409
 10
1923.65151996681
 20
102.9324757267369
 10
1924.73533335535
 20
102.4174086279589
 10
1925.85789581807
 20
102.104800448171
 10
1927.0
 20
102.0
 10
1928.142104181929
 20
102.104800448171
 10
1929.264666644649
 20
102.4174086279589
 10
1930.348480033189
 20
102.9324757267369
 10
1931.375
 20
103.6411888036409
 10
1932.326662503829
 20
104.5314215814318
 10
1933.18718433538
 20
105.5879419304649
 10
1933.94184172755
 20
106.7926724946429
 10
1934.577722283109
 20
108.125
 10
1935.08394590947
 20
109.5621279535279
 10
1935.45185098003
 20
111.0794666974939
 10
1935.67514253702
 20
112.6510541453038
 10
1935.75
 20
114.25
 10
1935.67514253702
 20
115.8489458546959
 10
1935.45185098003
 20
117.4205333025059
 10
1935.08394590947
 20
118.9378720464719
 10
1934.577722283109
 20
120.375
 10
1933.94184172755
 20
121.7073275053569
 10
1933.18718433538
 20
122.912058069535
 10
1932.326662503829
 20
123.968578418568
 10
1931.375
 20
124.8588111963589
 10
1930.348480033189
 20
125.5675242732629
 10
1929.264666644649
 20
126.0825913720409
 10
1928.142104181929
 20
126.3951995518288
 10
1927.0
 20
126.5
  0
LWPOLYLINE
  5
283A
102
{ACAD_REACTORS
330
289B
102
}
330
18
100
AcDbEntity
  8
WAKU
  6
Continuous
 62
     7
100
AcDbPolyline
 90
       11
 70
     0
 43
0.0
 10
1937.5
 20
102.0
 10
1941.0
 20
102.0
 10
1941.0
 20
119.5
 10
1951.5
 20
102.0
 10
1955.0
 20
102.0
 10
1955.0
 20
126.5
 10
1951.5
 20
126.5
 10
1951.5
 20
109.0
 10
1941.0
 20
126.5
 10
1937.5
 20
126.5
 10
1937.5
 20
102.0
  0
LWPOLYLINE
  5
283B
102
{ACAD_REACTORS
330
289B
102
}
330
18
100
AcDbEntity
  8
WAKU
  6
Continuous
 62
     7
100
AcDbPolyline
 90
        5
 70
     0
 43
0.0
 10
1913.0
 20
126.5
 10
1913.0
 20
102.0
 10
1916.5
 20
102.0
 10
1916.5
 20
126.5
 10
1913.0
 20
126.5
  0
LWPOLYLINE
  5
283C
102
{ACAD_REACTORS
330
289B
102
}
330
18
100
AcDbEntity
  8
WAKU
  6
Continuous
 62
     7
100
AcDbPolyline
 90
        7
 70
     0
 43
0.0
 10
1902.5
 20
126.5
 10
1902.5
 20
105.4999999999999
 10
1909.499999999999
 20
105.4999999999999
 10
1909.499999999999
 20
102.0
 10
1899.0
 20
102.0
 10
1899.0
 20
126.5
 10
1902.5
 20
126.5
  0
LWPOLYLINE
  5
283D
102
{ACAD_REACTORS
330
289B
102
}
330
18
100
AcDbEntity
  8
WAKU
  6
Continuous
 62
     7
100
AcDbPolyline
 90
       13
 70
     0
 43
0.0
 10
1888.5
 20
102.0
 10
1874.5
 20
102.0
 10
1874.5
 20
126.5
 10
1888.5
 20
126.5
 10
1888.5
 20
123.0
 10
1878.0
 20
123.0
 10
1878.0
 20
116.0
 10
1888.5
 20
116.0
 10
1888.5
 20
112.5
 10
1878.0
 20
112.5
 10
1878.0
 20
105.4999999999999
 10
1888.5
 20
105.4999999999999
 10
1888.5
 20
102.0
  0
POINT
  5
283E
330
18
100
AcDbEntity
  8
TEN
  6
Continuous
 62
     4
100
AcDbPoint
 10
1652.2
 20
77.30000000000003
 30
0.0
  0
POINT
  5
283F
330
18
100
AcDbEntity
  8
TEN
  6
Continuous
 62
     4
100
AcDbPoint
 10
1710.0
 20
77.0
 30
0.0
  0
POINT
  5
2840
330
18
100
AcDbEntity
  8
TEN
  6
Continuous
 62
     4
100
AcDbPoint
 10
1767.8
 20
76.7
 30
0.0
  0
CIRCLE
  5
2841
330
18
100
AcDbEntity
  8
WAKU
  6
Continuous
 62
     2
100
AcDbCircle
 10
1740.0
 20
69.5
 30
0.0
 40
3.0
  0
CIRCLE
  5
2842
330
18
100
AcDbEntity
  8
WAKU
  6
Continuous
 62
     2
100
AcDbCircle
 10
1680.0
 20
69.5
 30
0.0
 40
3.0
  0
POINT
  5
2843
330
18
100
AcDbEntity
  8
TEN
  6
Continuous
 62
     4
100
AcDbPoint
 10
3459.0
 20
104.0
 30
0.0
  0
POINT
  5
2844
330
18
100
AcDbEntity
  8
TEN
  6
Continuous
 62
     4
100
AcDbPoint
 10
1510.0
 20
83.0
 30
0.0
  0
POINT
  5
2845
330
18
100
AcDbEntity
  8
TEN
  6
Continuous
 62
     4
100
AcDbPoint
 10
1515.0
 20
194.0
 30
0.0
  0
POINT
  5
2846
330
18
100
AcDbEntity
  8
TEN
  6
Continuous
 62
     4
100
AcDbPoint
 10
1738.0
 20
243.0
 30
0.0
  0
POINT
  5
2847
330
18
100
AcDbEntity
  8
TEN
  6
Continuous
 62
     4
100
AcDbPoint
 10
1734.0
 20
131.0
 30
0.0
  0
POINT
  5
2848
330
18
100
AcDbEntity
  8
TEN
  6
Continuous
 62
     4
100
AcDbPoint
 10
2839.0
 20
99.0
 30
0.0
  0
POINT
  5
2849
330
18
100
AcDbEntity
  8
TEN
  6
Continuous
 62
     4
100
AcDbPoint
 10
3074.0
 20
211.0
 30
0.0
  0
POINT
  5
284A
330
18
100
AcDbEntity
  8
TEN
  6
Continuous
 62
     4
100
AcDbPoint
 10
3220.0
 20
103.0
 30
0.0
  0
POINT
  5
284B
330
18
100
AcDbEntity
  8
TEN
  6
Continuous
 62
     4
100
AcDbPoint
 10
3648.0
 20
103.0
 30
0.0
  0
POINT
  5
284C
330
18
100
AcDbEntity
  8
TEN
  6
Continuous
 62
     4
100
AcDbPoint
 10
3647.0
 20
215.0
 30
0.0
  0
TEXT
  5
284D
330
18
100
AcDbEntity
  8
WAKU
  6
Continuous
 62
     1
100
AcDbText
 10
3859.0
 20
2832.0
 30
0.0
 40
25.0
  1
８
 41
0.84
  7
EXCADSTD
100
AcDbText
  0
TEXT
  5
284E
330
18
100
AcDbEntity
  8
WAKU
  6
Continuous
 62
     1
100
AcDbText
 10
3392.0
 20
2837.0
 30
0.0
 40
25.0
  1
７
 41
0.84
  7
EXCADSTD
100
AcDbText
  0
TEXT
  5
284F
330
18
100
AcDbEntity
  8
WAKU
  6
Continuous
 62
     1
100
AcDbText
 10
2887.0
 20
2837.0
 30
0.0
 40
25.0
  1
６
 41
0.84
  7
EXCADSTD
100
AcDbText
  0
TEXT
  5
2850
330
18
100
AcDbEntity
  8
WAKU
  6
Continuous
 62
     1
100
AcDbText
 10
2376.0
 20
2837.0
 30
0.0
 40
25.0
  1
５
 41
0.84
  7
EXCADSTD
100
AcDbText
  0
TEXT
  5
2851
330
18
100
AcDbEntity
  8
WAKU
  6
Continuous
 62
     1
100
AcDbText
 10
1890.0
 20
2837.0
 30
0.0
 40
25.0
  1
４
 41
0.84
  7
EXCADSTD
100
AcDbText
  0
TEXT
  5
2852
330
18
100
AcDbEntity
  8
WAKU
  6
Continuous
 62
     1
100
AcDbText
 10
1375.0
 20
2837.0
 30
0.0
 40
25.0
  1
３
 41
0.84
  7
EXCADSTD
100
AcDbText
  0
TEXT
  5
2853
330
18
100
AcDbEntity
  8
WAKU
  6
Continuous
 62
     1
100
AcDbText
 10
879.0
 20
2837.0
 30
0.0
 40
25.0
  1
２
 41
0.84
  7
EXCADSTD
100
AcDbText
  0
TEXT
  5
2854
330
18
100
AcDbEntity
  8
WAKU
  6
Continuous
 62
     1
100
AcDbText
 10
378.0
 20
2837.0
 30
0.0
 40
25.0
  1
１
 41
0.84
  7
EXCADSTD
100
AcDbText
  0
TEXT
  5
2855
330
18
100
AcDbEntity
  8
WAKU
  6
Continuous
 62
     1
100
AcDbText
 10
123.0
 20
520.0
 30
0.0
 40
25.0
  1
Ｅ
 41
0.84
  7
EXCADSTD
100
AcDbText
  0
TEXT
  5
2856
330
18
100
AcDbEntity
  8
WAKU
  6
Continuous
 62
     1
100
AcDbText
 10
118.0
 20
1025.0
 30
0.0
 40
25.0
  1
Ｄ
 41
0.84
  7
EXCADSTD
100
AcDbText
  0
TEXT
  5
2857
330
18
100
AcDbEntity
  8
WAKU
  6
Continuous
 62
     1
100
AcDbText
 10
123.0
 20
1531.0
 30
0.0
 40
25.0
  1
Ｃ
 41
0.84
  7
EXCADSTD
100
AcDbText
  0
TEXT
  5
2858
330
18
100
AcDbEntity
  8
WAKU
  6
Continuous
 62
     1
100
AcDbText
 10
118.0
 20
2027.0
 30
0.0
 40
25.0
  1
Ｂ
 41
0.84
  7
EXCADSTD
100
AcDbText
  0
TEXT
  5
2859
330
18
100
AcDbEntity
  8
WAKU
  6
Continuous
 62
     1
100
AcDbText
 10
118.0
 20
2527.0
 30
0.0
 40
25.0
  1
Ａ
 41
0.84
  7
EXCADSTD
100
AcDbText
  0
TEXT
  5
285A
330
18
100
AcDbEntity
  8
WAKU
  6
Continuous
 62
     2
100
AcDbText
 10
1055.0
 20
170.0
 30
0.0
 40
30.0
  1
日塗工・マンセル
 41
0.84
  7
EXCADSTD
100
AcDbText
  0
TEXT
  5
285B
330
18
100
AcDbEntity
  8
WAKU
  6
Continuous
 62
     2
100
AcDbText
 10
1056.0
 20
117.0
 30
0.0
 40
30.0
  1
外面
 41
0.84
  7
EXCADSTD
100
AcDbText
  0
LINE
  5
285C
330
18
100
AcDbEntity
  8
WAKU
  6
DOT
 62
     3
100
AcDbLine
 10
210.0
 20
110.0
 30
0.0
 11
1401.0
 21
110.0
 31
0.0
  0
LINE
  5
285D
330
18
100
AcDbEntity
  8
WAKU
  6
DOT
 62
     3
100
AcDbLine
 10
210.0
 20
210.0
 30
0.0
 11
1050.0
 21
210.0
 31
0.0
  0
LINE
  5
285E
330
18
100
AcDbEntity
  8
WAKU
  6
Continuous
 62
     1
100
AcDbLine
 10
150.0
 20
320.0
 30
0.0
 11
170.0
 21
320.0
 31
0.0
  0
LINE
  5
285F
330
18
100
AcDbEntity
  8
WAKU
  6
Continuous
 62
     1
100
AcDbLine
 10
150.0
 20
820.0
 30
0.0
 11
170.0
 21
820.0
 31
0.0
  0
LINE
  5
2860
330
18
100
AcDbEntity
  8
WAKU
  6
Continuous
 62
     1
100
AcDbLine
 10
150.0
 20
1320.0
 30
0.0
 11
170.0
 21
1320.0
 31
0.0
  0
LINE
  5
2861
330
18
100
AcDbEntity
  8
WAKU
  6
Continuous
 62
     1
100
AcDbLine
 10
150.0
 20
1820.0
 30
0.0
 11
170.0
 21
1820.0
 31
0.0
  0
LINE
  5
2862
330
18
100
AcDbEntity
  8
WAKU
  6
Continuous
 62
     1
100
AcDbLine
 10
150.0
 20
2320.0
 30
0.0
 11
170.0
 21
2320.0
 31
0.0
  0
LINE
  5
2863
330
18
100
AcDbEntity
  8
WAKU
  6
Continuous
 62
     1
100
AcDbLine
 10
3650.0
 20
2820.0
 30
0.0
 11
3650.0
 21
2800.0
 31
0.0
  0
LINE
  5
2864
330
18
100
AcDbEntity
  8
WAKU
  6
Continuous
 62
     1
100
AcDbLine
 10
3150.0
 20
2820.0
 30
0.0
 11
3150.0
 21
2800.0
 31
0.0
  0
LINE
  5
2865
330
18
100
AcDbEntity
  8
WAKU
  6
Continuous
 62
     1
100
AcDbLine
 10
2650.0
 20
2820.0
 30
0.0
 11
2650.0
 21
2800.0
 31
0.0
  0
LINE
  5
2866
330
18
100
AcDbEntity
  8
WAKU
  6
Continuous
 62
     1
100
AcDbLine
 10
2150.0
 20
2820.0
 30
0.0
 11
2150.0
 21
2800.0
 31
0.0
  0
LINE
  5
2867
330
18
100
AcDbEntity
  8
WAKU
  6
Continuous
 62
     1
100
AcDbLine
 10
1650.0
 20
2820.0
 30
0.0
 11
1650.0
 21
2800.0
 31
0.0
  0
LINE
  5
2868
330
18
100
AcDbEntity
  8
WAKU
  6
Continuous
 62
     1
100
AcDbLine
 10
1150.0
 20
2820.0
 30
0.0
 11
1150.0
 21
2800.0
 31
0.0
  0
LINE
  5
2869
330
18
100
AcDbEntity
  8
WAKU
  6
Continuous
 62
     1
100
AcDbLine
 10
650.0
 20
2820.0
 30
0.0
 11
650.0
 21
2800.0
 31
0.0
  0
POINT
  5
286A
330
18
100
AcDbEntity
  8
TEN
  6
Continuous
 62
     4
100
AcDbPoint
 10
1820.172203531769
 20
221.000000000001
 30
0.0
  0
TEXT
  5
286B
330
18
100
AcDbEntity
  8
WAKU
  6
Continuous
 62
     2
100
AcDbText
 10
3084.0
 20
89.0
 30
0.0
 40
30.0
  1
記号
 41
0.98
  7
EXCADSTD
100
AcDbText
  0
LINE
  5
286C
330
18
100
AcDbEntity
  8
WAKU
  6
Continuous
 62
     3
100
AcDbLine
 10
3074.999968
 20
51.0
 30
0.0
 11
3074.999968
 21
160.4999999999999
 31
0.0
  0
LINE
  5
286D
330
18
100
AcDbEntity
  8
WAKU
  6
Continuous
 62
     5
100
AcDbLine
 10
1918.89537202802
 20
179.7759999999999
 30
0.0
 11
1920.05588952606
 21
180.9365174980419
 31
0.0
  0
CIRCLE
  5
286E
330
18
100
AcDbEntity
  8
WAKU
  6
Continuous
 62
     2
100
AcDbCircle
 10
1740.0
 20
179.4999999999999
 30
0.0
 40
3.0
  0
CIRCLE
  5
286F
330
18
100
AcDbEntity
  8
WAKU
  6
Continuous
 62
     2
100
AcDbCircle
 10
1680.0
 20
179.4999999999999
 30
0.0
 40
3.0
  0
TEXT
  5
2870
330
18
100
AcDbEntity
  8
WAKU
  6
Continuous
 62
     2
100
AcDbText
 10
177.991667
 20
249.0
 30
0.0
 40
31.5
  1
変更記事
 41
0.8
  7
EXCADVERT
100
AcDbText
  0
LINE
  5
2871
330
18
100
AcDbEntity
  8
WAKU
  6
Continuous
 62
     3
100
AcDbLine
 10
4032.0
 20
146.5
 30
0.0
 11
3976.0
 21
58.0
 31
0.0
  0
LINE
  5
2872
330
18
100
AcDbEntity
  8
WAKU
  6
Continuous
 62
     3
100
AcDbLine
 10
2549.999968
 20
160.4999999999999
 30
0.0
 11
4050.0
 21
160.4999999999999
 31
0.0
  0
LINE
  5
2873
330
18
100
AcDbEntity
  8
WAKU
  6
DOT
 62
     3
100
AcDbLine
 10
1671.0
 20
213.75
 30
0.0
 11
1799.999975
 21
213.75
 31
0.0
  0
LINE
  5
2874
330
18
100
AcDbEntity
  8
WAKU
  6
DOT
 62
     3
100
AcDbLine
 10
1671.0
 20
103.75
 30
0.0
 11
1799.999975
 21
103.75
 31
0.0
  0
LINE
  5
2875
330
18
100
AcDbEntity
  8
WAKU
  6
Continuous
 62
     3
100
AcDbLine
 10
1401.0
 20
160.0
 30
0.0
 11
1799.999975
 21
160.0
 31
0.0
  0
LINE
  5
2876
330
18
100
AcDbEntity
  8
WAKU
  6
DOT
 62
     3
100
AcDbLine
 10
210.0
 20
50.0
 30
0.0
 11
210.0
 21
270.0
 31
0.0
  0
LINE
  5
2877
330
18
100
AcDbEntity
  8
WAKU
  6
DOT
 62
     3
100
AcDbLine
 10
210.0
 20
160.0
 30
0.0
 11
1401.0
 21
160.0
 31
0.0
  0
LINE
  5
2878
330
18
100
AcDbEntity
  8
WAKU
  6
Continuous
 62
    11
100
AcDbLine
 10
150.0
 20
270.0
 30
0.0
 11
4050.0
 21
270.0
 31
0.0
  0
LINE
  5
2879
330
18
100
AcDbEntity
  8
WAKU
  6
Continuous
 62
     3
100
AcDbLine
 10
1050.0
 20
270.0
 30
0.0
 11
1050.0
 21
50.0
 31
0.0
  0
LINE
  5
287A
330
18
100
AcDbEntity
  8
WAKU
  6
Continuous
 62
     3
100
AcDbLine
 10
1400.0
 20
270.0
 30
0.0
 11
1400.0
 21
50.0
 31
0.0
  0
LINE
  5
287B
330
18
100
AcDbEntity
  8
WAKU
  6
Continuous
 62
     3
100
AcDbLine
 10
1600.0
 20
270.0
 30
0.0
 11
1600.0
 21
50.0
 31
0.0
  0
LINE
  5
287C
330
18
100
AcDbEntity
  8
WAKU
  6
Continuous
 62
     3
100
AcDbLine
 10
1799.999975
 20
270.0
 30
0.0
 11
1799.999975
 21
49.90000000000009
 31
0.0
  0
LINE
  5
287D
330
18
100
AcDbEntity
  8
WAKU
  6
Continuous
 62
     3
100
AcDbLine
 10
2549.999968
 20
270.0
 30
0.0
 11
2549.999968
 21
50.0
 31
0.0
  0
TEXT
  5
287E
330
18
100
AcDbEntity
  8
WAKU
  6
Continuous
 62
     2
100
AcDbText
 10
3310.0
 20
91.0
 30
0.0
 40
30.0
  1
製作数
 41
0.933333333333333
  7
EXCADSTD
100
AcDbText
  0
LINE
  5
287F
330
18
100
AcDbEntity
  8
WAKU
  6
Continuous
 62
     3
100
AcDbLine
 10
3550.0
 20
160.4999999999999
 30
0.0
 11
3550.0
 21
50.0
 31
0.0
  0
LINE
  5
2880
330
18
100
AcDbEntity
  8
WAKU
  6
Continuous
 62
     3
100
AcDbLine
 10
3300.0
 20
160.4999999999999
 30
0.0
 11
3300.0
 21
51.0
 31
0.0
  0
LINE
  5
2881
330
18
100
AcDbEntity
  8
WAKU
  6
Continuous
 62
     3
100
AcDbLine
 10
3550.0
 20
270.0
 30
0.0
 11
3550.0
 21
160.4999999999999
 31
0.0
  0
TEXT
  5
2882
330
18
100
AcDbEntity
  8
WAKU
  6
Continuous
 62
    11
100
AcDbText
 10
2002.0
 20
123.0
 30
0.0
 40
50.0
  1
エ－スライオン株式会社
 41
0.7636363636363642
  7
EXCADSTD
100
AcDbText
  0
TEXT
  5
2883
330
18
100
AcDbEntity
  8
WAKU
  6
Continuous
 62
     2
100
AcDbText
 10
3559.0
 20
90.0
 30
0.0
 40
30.0
  1
図番
 41
0.98
  7
EXCADSTD
100
AcDbText
  0
TEXT
  5
2884
330
18
100
AcDbEntity
  8
WAKU
  6
Continuous
 62
     2
100
AcDbText
 10
3504.0
 20
89.0
 30
0.0
 40
30.0
  1
面
 41
1.12
  7
EXCADSTD
100
AcDbText
  0
TEXT
  5
2885
330
18
100
AcDbEntity
  8
WAKU
  6
Continuous
 62
     2
100
AcDbText
 10
3553.000031999998
 20
197.0000000000009
 30
0.0
 40
30.0
  1
工番
 41
0.98
  7
EXCADSTD
100
AcDbText
  0
TEXT
  5
2886
330
18
100
AcDbEntity
  8
WAKU
  6
Continuous
 62
     2
100
AcDbText
 10
2563.0
 20
91.0
 30
0.0
 40
30.0
  1
品名
 41
0.98
  7
EXCADSTD
100
AcDbText
  0
TEXT
  5
2887
330
18
100
AcDbEntity
  8
WAKU
  6
Continuous
 62
     2
100
AcDbText
 10
3500.000031999998
 20
197.0000000000009
 30
0.0
 40
30.0
  1
殿
 41
1.12
  7
EXCADSTD
100
AcDbText
  0
TEXT
  5
2888
330
18
100
AcDbEntity
  8
WAKU
  6
Continuous
 62
     2
100
AcDbText
 10
2560.0
 20
200.0
 30
0.0
 40
30.0
  1
納入先
 41
0.933333333333333
  7
EXCADSTD
100
AcDbText
  0
TEXT
  5
2889
330
18
100
AcDbEntity
  8
WAKU
  6
Continuous
 62
     2
100
AcDbText
 10
1607.0
 20
117.5
 30
0.0
 40
30.0
  1
検図
 41
0.84
  7
EXCADSTD
100
AcDbText
  0
TEXT
  5
288A
330
18
100
AcDbEntity
  8
WAKU
  6
Continuous
 62
     2
100
AcDbText
 10
1607.0
 20
231.0
 30
0.0
 40
30.0
  1
製図
 41
0.84
  7
EXCADSTD
100
AcDbText
  0
TEXT
  5
288B
330
18
100
AcDbEntity
  8
WAKU
  6
Continuous
 62
     2
100
AcDbText
 10
1406.0
 20
117.5
 30
0.0
 40
30.0
  1
縮尺
 41
0.84
  7
EXCADSTD
100
AcDbText
  0
TEXT
  5
288C
330
18
100
AcDbEntity
  8
WAKU
  6
Continuous
 62
     2
100
AcDbText
 10
1408.0
 20
231.0
 30
0.0
 40
30.0
  1
形式
 41
0.84
  7
EXCADSTD
100
AcDbText
  0
TEXT
  5
288D
330
18
100
AcDbEntity
  8
WAKU
  6
Continuous
 62
     2
100
AcDbText
 10
1057.0
 20
61.0
 30
0.0
 40
30.0
  1
内面
 41
0.84
  7
EXCADSTD
100
AcDbText
  0
TEXT
  5
288E
330
18
100
AcDbEntity
  8
WAKU
  6
Continuous
 62
     2
100
AcDbText
 10
1055.0
 20
222.0
 30
0.0
 40
30.0
  1
塗装色（艶　　　　　　）
 41
0.84
  7
EXCADSTD
100
AcDbText
  0
LWPOLYLINE
  5
288F
330
18
100
AcDbEntity
  8
WAKU
  6
Continuous
 62
    11
100
AcDbPolyline
 90
        5
 70
     0
 43
0.0
 10
150.0
 20
50.0
 10
4050.0
 20
50.0
 10
4050.0
 20
2820.0
 10
150.0
 20
2820.0
 10
150.0
 20
50.0
  0
LWPOLYLINE
  5
2891
102
{ACAD_REACTORS
330
2892
102
}
330
18
100
AcDbEntity
  8
WAKU
  6
Continuous
 62
     1
100
AcDbPolyline
 90
        6
 70
     1
 43
0.0
 10
1876.16089539752
 20
150.592
 10
1904.538815828732
 20
150.592
 10
1896.114120700712
 20
136.0
 10
1849.999999999999
 20
136.0
 10
1873.057060350359
 20
175.9359999999999
 10
1890.793260619863
 20
175.9359999999999
  0
HATCH
  5
2892
330
18
100
AcDbEntity
  8
WAKU-MOJI
  6
Continuous
100
AcDbHatch
 10
0.0
 20
0.0
 30
0.0
210
0.0
220
0.0
230
1.0
  2
SOLID
 70
     1
 71
     1
 91
        1
 92
        1
 93
        6
 72
     1
 10
1876.16089539752
 20
150.592
 11
1904.538815828732
 21
150.592
 72
     1
 10
1904.538815828732
 20
150.592
 11
1896.114120700712
 21
136.0
 72
     1
 10
1896.114120700712
 20
136.0
 11
1849.999999999999
 21
136.0
 72
     1
 10
1849.999999999999
 20
136.0
 11
1873.057060350359
 21
175.9359999999999
 72
     1
 10
1873.057060350359
 20
175.9359999999999
 11
1890.793260619863
 21
175.9359999999999
 72
     1
 10
1890.793260619863
 20
175.9359999999999
 11
1876.16089539752
 21
150.592
 97
        1
330
2891
 75
     0
 76
     1
 98
        1
 10
0.0
 20
0.0
  0
LWPOLYLINE
  5
2893
102
{ACAD_REACTORS
330
2898
102
}
330
18
100
AcDbEntity
  8
WAKU
  6
Continuous
 62
     5
100
AcDbPolyline
 90
        4
 70
     1
 43
0.0
 10
1885.69691908368
 20
194.368
 10
1912.301219487945
 20
194.368
 10
1907.867169420561
 20
202.048
 10
1881.262869016304
 20
202.048
  0
LWPOLYLINE
  5
2894
102
{ACAD_REACTORS
330
2898
102
}
330
18
100
AcDbEntity
  8
WAKU
  6
Continuous
 62
     5
100
AcDbPolyline
 90
        4
 70
     1
 43
0.0
 10
1894.106923175614
 20
179.8014456209069
 10
1920.711223579879
 20
179.8014456209069
 10
1916.277173512495
 20
187.4814456209069
 10
1889.672873108239
 20
187.4814456209069
  0
LWPOLYLINE
  5
2895
102
{ACAD_REACTORS
330
2898
102
}
330
18
100
AcDbEntity
  8
WAKU
  6
Continuous
 62
     5
100
AcDbPolyline
 90
        4
 70
     1
 43
0.0
 10
1902.581517629863
 20
165.224799936228
 10
1929.185818034128
 20
165.224799936228
 10
1924.751767966744
 20
172.9047999362279
 10
1898.147467562489
 20
172.9047999362279
  0
LWPOLYLINE
  5
2896
102
{ACAD_REACTORS
330
2898
102
}
330
18
100
AcDbEntity
  8
WAKU
  6
Continuous
 62
     5
100
AcDbPolyline
 90
        4
 70
     1
 43
0.0
 10
1919.480960321884
 20
135.9541065740468
 10
1946.085260726149
 20
135.9541065740468
 10
1941.651210658765
 20
143.6341065740469
 10
1915.04691025451
 20
143.6341065740469
  0
LWPOLYLINE
  5
2897
102
{ACAD_REACTORS
330
2898
102
}
330
18
100
AcDbEntity
  8
WAKU
  6
Continuous
 62
     5
100
AcDbPolyline
 90
        4
 70
     1
 43
0.0
 10
1910.954438975873
 20
150.722474757159
 10
1937.558739380138
 20
150.722474757159
 10
1933.124689312755
 20
158.402474757159
 10
1906.5203889085
 20
158.402474757159
  0
HATCH
  5
2898
330
18
100
AcDbEntity
  8
WAKU-MOJI
  6
Continuous
100
AcDbHatch
 10
0.0
 20
0.0
 30
0.0
210
0.0
220
0.0
230
1.0
  2
SOLID
 70
     1
 71
     1
 91
        5
 92
        1
 93
        4
 72
     1
 10
1919.480960321884
 20
135.9541065740468
 11
1946.085260726149
 21
135.9541065740468
 72
     1
 10
1946.085260726149
 20
135.9541065740468
 11
1941.651210658765
 21
143.6341065740469
 72
     1
 10
1941.651210658765
 20
143.6341065740469
 11
1915.04691025451
 21
143.6341065740469
 72
     1
 10
1915.04691025451
 20
143.6341065740469
 11
1919.480960321884
 21
135.9541065740468
 97
        1
330
2896
 92
        1
 93
        4
 72
     1
 10
1910.954438975873
 20
150.722474757159
 11
1937.558739380138
 21
150.722474757159
 72
     1
 10
1937.558739380138
 20
150.722474757159
 11
1933.124689312755
 21
158.402474757159
 72
     1
 10
1933.124689312755
 20
158.402474757159
 11
1906.5203889085
 21
158.402474757159
 72
     1
 10
1906.5203889085
 20
158.402474757159
 11
1910.954438975873
 21
150.722474757159
 97
        1
330
2897
 92
        1
 93
        4
 72
     1
 10
1902.581517629863
 20
165.224799936228
 11
1929.185818034128
 21
165.224799936228
 72
     1
 10
1929.185818034128
 20
165.224799936228
 11
1924.751767966744
 21
172.9047999362279
 72
     1
 10
1924.751767966744
 20
172.9047999362279
 11
1898.147467562489
 21
172.9047999362279
 72
     1
 10
1898.147467562489
 20
172.9047999362279
 11
1902.581517629863
 21
165.224799936228
 97
        1
330
2895
 92
        1
 93
        4
 72
     1
 10
1894.106923175614
 20
179.8014456209069
 11
1920.711223579879
 21
179.8014456209069
 72
     1
 10
1920.711223579879
 20
179.8014456209069
 11
1916.277173512495
 21
187.4814456209069
 72
     1
 10
1916.277173512495
 20
187.4814456209069
 11
1889.672873108239
 21
187.4814456209069
 72
     1
 10
1889.672873108239
 20
187.4814456209069
 11
1894.106923175614
 21
179.8014456209069
 97
        1
330
2894
 92
        1
 93
        4
 72
     1
 10
1885.69691908368
 20
194.368
 11
1912.301219487945
 21
194.368
 72
     1
 10
1912.301219487945
 20
194.368
 11
1907.867169420561
 21
202.048
 72
     1
 10
1907.867169420561
 20
202.048
 11
1881.262869016304
 21
202.048
 72
     1
 10
1881.262869016304
 20
202.048
 11
1885.69691908368
 21
194.368
 97
        1
330
2893
 75
     0
 76
     1
 98
        1
 10
0.0
 20
0.0
  0
LWPOLYLINE
  5
2899
102
{ACAD_REACTORS
330
289A
102
}
330
18
100
AcDbEntity
  8
WAKU
  6
Continuous
 62
     7
100
AcDbPolyline
 90
        7
 70
     1
 43
0.0
 10
1843.0
 20
126.5
 10
1846.499999999999
 20
126.5
 10
1853.5
 20
102.0
 10
1850.0
 20
102.0
 10
1844.75
 20
120.375
 10
1839.5
 20
102.0
 10
1836.0
 20
102.0
  0
HATCH
  5
289A
330
18
100
AcDbEntity
  8
WAKU-MOJI
  6
Continuous
100
AcDbHatch
 10
0.0
 20
0.0
 30
0.0
210
0.0
220
0.0
230
1.0
  2
SOLID
 70
     1
 71
     1
 91
        2
 92
        1
 93
       69
 72
     1
 10
1869.39
 20
108.4624190070458
 11
1868.950466641679
 21
107.893481361466
 72
     1
 10
1868.950466641679
 20
107.893481361466
 11
1868.195926382809
 21
107.118483114415
 72
     1
 10
1868.195926382809
 20
107.118483114415
 11
1867.36244213045
 21
106.4822917315619
 72
     1
 10
1867.36244213045
 20
106.4822917315619
 11
1866.466236707499
 21
105.9972899545159
 72
     1
 10
1866.466236707499
 20
105.9972899545159
 11
1865.524753733089
 21
105.6729177911879
 72
     1
 10
1865.524753733089
 20
105.6729177911879
 11
1864.55631810239
 21
105.5154887767669
 72
     1
 10
1864.55631810239
 20
105.5154887767669
 11
1863.579779313388
 21
105.5280670879479
 72
     1
 10
1863.579779313388
 20
105.5280670879479
 11
1862.61414458282
 21
105.71040790221
 72
     1
 10
1862.61414458282
 20
105.71040790221
 11
1861.6782088923
 21
106.058962163013
 72
     1
 10
1861.6782088923
 20
106.058962163013
 11
1860.79018916545
 21
106.5669456581459
 72
     1
 10
1860.79018916545
 20
106.5669456581459
 11
1859.967369696138
 21
107.224471066698
 72
     1
 10
1859.967369696138
 20
107.224471066698
 11
1859.2257657294
 21
108.018740404517
 72
     1
 10
1859.2257657294
 20
108.018740404517
 11
1858.57981174287
 21
108.934294122408
 72
     1
 10
1858.57981174287
 20
108.934294122408
 11
1858.04208049616
 21
109.9533120086809
 72
     1
 10
1858.04208049616
 20
109.9533120086809
 11
1857.6230383163
 21
111.055960039295
 72
     1
 10
1857.6230383163
 20
111.055960039295
 11
1857.33084138268
 21
112.220776424578
 72
     1
 10
1857.33084138268
 20
112.220776424578
 11
1857.17117697625
 21
113.425089338548
 72
     1
 10
1857.17117697625
 20
113.425089338548
 11
1857.14715278305
 21
114.6454582002218
 72
     1
 10
1857.14715278305
 20
114.6454582002218
 11
1857.259236406689
 21
115.858129917856
 72
     1
 10
1857.259236406689
 20
115.858129917856
 11
1857.50524626691
 21
117.0395012158589
 72
     1
 10
1857.50524626691
 20
117.0395012158589
 11
1857.880394061639
 21
118.1665780457059
 72
     1
 10
1857.880394061639
 20
118.1665780457059
 11
1858.37737796575
 21
119.2174231389339
 72
     1
 10
1858.37737796575
 20
119.2174231389339
 11
1858.98652475288
 21
120.171582991124
 72
     1
 10
1858.98652475288
 20
120.171582991124
 11
1859.695978073699
 21
121.0104859660919
 72
     1
 10
1859.695978073699
 20
121.0104859660919
 11
1860.49192922631
 21
121.717803771669
 72
     1
 10
1860.49192922631
 20
121.717803771669
 11
1861.35888592692
 21
122.2797692713309
 72
     1
 10
1861.35888592692
 20
122.2797692713309
 11
1862.279973849489
 21
122.6854444458538
 72
     1
 10
1862.279973849489
 20
122.6854444458538
 11
1863.23726506533
 21
122.9269332894139
 72
     1
 10
1863.23726506533
 20
122.9269332894139
 11
1864.21212698983
 21
122.999535496362
 72
     1
 10
1864.21212698983
 20
122.999535496362
 11
1865.18558504451
 21
122.9018379473209
 72
     1
 10
1865.18558504451
 20
122.9018379473209
 11
1866.138691975639
 21
122.6357422139559
 72
     1
 10
1866.138691975639
 20
122.6357422139559
 11
1867.05289664094
 21
122.2064275470369
 72
     1
 10
1867.05289664094
 20
122.2064275470369
 11
1867.910405086499
 21
121.622250068216
 72
     1
 10
1867.910405086499
 20
121.622250068216
 11
1868.694526885819
 21
120.894580127628
 72
     1
 10
1868.694526885819
 20
120.894580127628
 11
1869.39
 21
120.0375809929539
 72
     1
 10
1869.39
 20
120.0375809929539
 11
1869.39
 21
124.8588111963589
 72
     1
 10
1869.39
 20
124.8588111963589
 11
1868.15817603983
 21
125.5675242732629
 72
     1
 10
1868.15817603983
 20
125.5675242732629
 11
1866.85759997358
 21
126.0825913720409
 72
     1
 10
1866.85759997358
 20
126.0825913720409
 11
1865.51052501831
 21
126.3951995518288
 72
     1
 10
1865.51052501831
 20
126.3951995518288
 11
1864.14
 21
126.5
 72
     1
 10
1864.14
 20
126.5
 11
1862.769474981689
 21
126.3951995518288
 72
     1
 10
1862.769474981689
 20
126.3951995518288
 11
1861.422400026419
 21
126.0825913720409
 72
     1
 10
1861.422400026419
 20
126.0825913720409
 11
1860.121823960168
 21
125.5675242732629
 72
     1
 10
1860.121823960168
 20
125.5675242732629
 11
1858.89
 21
124.8588111963589
 72
     1
 10
1858.89
 20
124.8588111963589
 11
1857.74800499541
 21
123.968578418568
 72
     1
 10
1857.74800499541
 20
123.968578418568
 11
1856.71537879754
 21
122.912058069535
 72
     1
 10
1856.71537879754
 20
122.912058069535
 11
1855.809789926939
 21
121.7073275053569
 72
     1
 10
1855.809789926939
 20
121.7073275053569
 11
1855.04673326026
 21
120.375
 72
     1
 10
1855.04673326026
 20
120.375
 11
1854.439264908629
 21
118.9378720464719
 72
     1
 10
1854.439264908629
 20
118.9378720464719
 11
1853.99777882397
 21
117.4205333025059
 72
     1
 10
1853.99777882397
 20
117.4205333025059
 11
1853.72982895558
 21
115.8489458546959
 72
     1
 10
1853.72982895558
 20
115.8489458546959
 11
1853.64
 21
114.25
 72
     1
 10
1853.64
 20
114.25
 11
1853.72982895558
 21
112.6510541453049
 72
     1
 10
1853.72982895558
 20
112.6510541453049
 11
1853.99777882397
 21
111.0794666974939
 72
     1
 10
1853.99777882397
 20
111.0794666974939
 11
1854.439264908629
 21
109.5621279535279
 72
     1
 10
1854.439264908629
 20
109.5621279535279
 11
1855.04673326026
 21
108.125
 72
     1
 10
1855.04673326026
 20
108.125
 11
1855.809789926939
 21
106.7926724946429
 72
     1
 10
1855.809789926939
 20
106.7926724946429
 11
1856.71537879754
 21
105.5879419304649
 72
     1
 10
1856.71537879754
 20
105.5879419304649
 11
1857.74800499541
 21
104.5314215814318
 72
     1
 10
1857.74800499541
 20
104.5314215814318
 11
1858.89
 21
103.6411888036409
 72
     1
 10
1858.89
 20
103.6411888036409
 11
1860.121823960168
 21
102.9324757267369
 72
     1
 10
1860.121823960168
 20
102.9324757267369
 11
1861.422400026419
 21
102.4174086279589
 72
     1
 10
1861.422400026419
 20
102.4174086279589
 11
1862.769474981689
 21
102.104800448171
 72
     1
 10
1862.769474981689
 20
102.104800448171
 11
1864.14
 21
102.0
 72
     1
 10
1864.14
 20
102.0
 11
1865.51052501831
 21
102.104800448171
 72
     1
 10
1865.51052501831
 20
102.104800448171
 11
1866.85759997358
 21
102.4174086279589
 72
     1
 10
1866.85759997358
 20
102.4174086279589
 11
1868.15817603983
 21
102.9324757267369
 72
     1
 10
1868.15817603983
 20
102.9324757267369
 11
1869.39
 21
103.6411888036409
 72
     1
 10
1869.39
 20
103.6411888036409
 11
1869.39
 21
108.4624190070458
 97
        1
330
2837
 92
        1
 93
        7
 72
     1
 10
1843.0
 20
126.5
 11
1846.499999999999
 21
126.5
 72
     1
 10
1846.499999999999
 20
126.5
 11
1853.5
 21
102.0
 72
     1
 10
1853.5
 20
102.0
 11
1850.0
 21
102.0
 72
     1
 10
1850.0
 20
102.0
 11
1844.75
 21
120.375
 72
     1
 10
1844.75
 20
120.375
 11
1839.5
 21
102.0
 72
     1
 10
1839.5
 20
102.0
 11
1836.0
 21
102.0
 72
     1
 10
1836.0
 20
102.0
 11
1843.0
 21
126.5
 97
        1
330
2899
 75
     0
 76
     1
 98
        1
 10
0.0
 20
0.0
  0
HATCH
  5
289B
330
18
100
AcDbEntity
  8
WAKU-MOJI
  6
Continuous
100
AcDbHatch
 10
0.0
 20
0.0
 30
0.0
210
0.0
220
0.0
230
1.0
  2
SOLID
 70
     1
 71
     1
 91
        6
 92
        1
 93
       12
 72
     1
 10
1888.5
 20
102.0
 11
1874.5
 21
102.0
 72
     1
 10
1874.5
 20
102.0
 11
1874.5
 21
126.5
 72
     1
 10
1874.5
 20
126.5
 11
1888.5
 21
126.5
 72
     1
 10
1888.5
 20
126.5
 11
1888.5
 21
123.0
 72
     1
 10
1888.5
 20
123.0
 11
1878.0
 21
123.0
 72
     1
 10
1878.0
 20
123.0
 11
1878.0
 21
116.0
 72
     1
 10
1878.0
 20
116.0
 11
1888.5
 21
116.0
 72
     1
 10
1888.5
 20
116.0
 11
1888.5
 21
112.5
 72
     1
 10
1888.5
 20
112.5
 11
1878.0
 21
112.5
 72
     1
 10
1878.0
 20
112.5
 11
1878.0
 21
105.4999999999999
 72
     1
 10
1878.0
 20
105.4999999999999
 11
1888.5
 21
105.4999999999999
 72
     1
 10
1888.5
 20
105.4999999999999
 11
1888.5
 21
102.0
 97
        1
330
283D
 92
        1
 93
        6
 72
     1
 10
1902.5
 20
126.5
 11
1902.5
 21
105.4999999999999
 72
     1
 10
1902.5
 20
105.4999999999999
 11
1909.499999999999
 21
105.4999999999999
 72
     1
 10
1909.499999999999
 20
105.4999999999999
 11
1909.499999999999
 21
102.0
 72
     1
 10
1909.499999999999
 20
102.0
 11
1899.0
 21
102.0
 72
     1
 10
1899.0
 20
102.0
 11
1899.0
 21
126.5
 72
     1
 10
1899.0
 20
126.5
 11
1902.5
 21
126.5
 97
        1
330
283C
 92
        1
 93
        4
 72
     1
 10
1913.0
 20
126.5
 11
1913.0
 21
102.0
 72
     1
 10
1913.0
 20
102.0
 11
1916.5
 21
102.0
 72
     1
 10
1916.5
 20
102.0
 11
1916.5
 21
126.5
 72
     1
 10
1916.5
 20
126.5
 11
1913.0
 21
126.5
 97
        1
330
283B
 92
        1
 93
       10
 72
     1
 10
1937.5
 20
102.0
 11
1941.0
 21
102.0
 72
     1
 10
1941.0
 20
102.0
 11
1941.0
 21
119.5
 72
     1
 10
1941.0
 20
119.5
 11
1951.5
 21
102.0
 72
     1
 10
1951.5
 20
102.0
 11
1955.0
 21
102.0
 72
     1
 10
1955.0
 20
102.0
 11
1955.0
 21
126.5
 72
     1
 10
1955.0
 20
126.5
 11
1951.5
 21
126.5
 72
     1
 10
1951.5
 20
126.5
 11
1951.5
 21
109.0
 72
     1
 10
1951.5
 20
109.0
 11
1941.0
 21
126.5
 72
     1
 10
1941.0
 20
126.5
 11
1937.5
 21
126.5
 72
     1
 10
1937.5
 20
126.5
 11
1937.5
 21
102.0
 97
        1
330
283A
 92
        1
 93
       48
 72
     1
 10
1927.0
 20
126.5
 11
1925.85789581807
 21
126.3951995518288
 72
     1
 10
1925.85789581807
 20
126.3951995518288
 11
1924.73533335535
 21
126.0825913720409
 72
     1
 10
1924.73533335535
 20
126.0825913720409
 11
1923.65151996681
 21
125.5675242732629
 72
     1
 10
1923.65151996681
 20
125.5675242732629
 11
1922.625
 21
124.8588111963589
 72
     1
 10
1922.625
 20
124.8588111963589
 11
1921.67333749617
 21
123.968578418568
 72
     1
 10
1921.67333749617
 20
123.968578418568
 11
1920.81281566462
 21
122.912058069535
 72
     1
 10
1920.81281566462
 20
122.912058069535
 11
1920.05815827245
 21
121.7073275053569
 72
     1
 10
1920.05815827245
 20
121.7073275053569
 11
1919.42227771689
 21
120.375
 72
     1
 10
1919.42227771689
 20
120.375
 11
1918.91605409053
 21
118.9378720464719
 72
     1
 10
1918.91605409053
 20
118.9378720464719
 11
1918.54814901997
 21
117.4205333025059
 72
     1
 10
1918.54814901997
 20
117.4205333025059
 11
1918.324857462978
 21
115.8489458546959
 72
     1
 10
1918.324857462978
 20
115.8489458546959
 11
1918.25
 21
114.25
 72
     1
 10
1918.25
 20
114.25
 11
1918.324857462978
 21
112.6510541453038
 72
     1
 10
1918.324857462978
 20
112.6510541453038
 11
1918.54814901997
 21
111.0794666974939
 72
     1
 10
1918.54814901997
 20
111.0794666974939
 11
1918.91605409053
 21
109.5621279535279
 72
     1
 10
1918.91605409053
 20
109.5621279535279
 11
1919.42227771689
 21
108.125
 72
     1
 10
1919.42227771689
 20
108.125
 11
1920.05815827245
 21
106.7926724946429
 72
     1
 10
1920.05815827245
 20
106.7926724946429
 11
1920.81281566462
 21
105.5879419304649
 72
     1
 10
1920.81281566462
 20
105.5879419304649
 11
1921.67333749617
 21
104.5314215814318
 72
     1
 10
1921.67333749617
 20
104.5314215814318
 11
1922.625
 21
103.6411888036409
 72
     1
 10
1922.625
 20
103.6411888036409
 11
1923.65151996681
 21
102.9324757267369
 72
     1
 10
1923.65151996681
 20
102.9324757267369
 11
1924.73533335535
 21
102.4174086279589
 72
     1
 10
1924.73533335535
 20
102.4174086279589
 11
1925.85789581807
 21
102.104800448171
 72
     1
 10
1925.85789581807
 20
102.104800448171
 11
1927.0
 21
102.0
 72
     1
 10
1927.0
 20
102.0
 11
1928.142104181929
 21
102.104800448171
 72
     1
 10
1928.142104181929
 20
102.104800448171
 11
1929.264666644649
 21
102.4174086279589
 72
     1
 10
1929.264666644649
 20
102.4174086279589
 11
1930.348480033189
 21
102.9324757267369
 72
     1
 10
1930.348480033189
 20
102.9324757267369
 11
1931.375
 21
103.6411888036409
 72
     1
 10
1931.375
 20
103.6411888036409
 11
1932.326662503829
 21
104.5314215814318
 72
     1
 10
1932.326662503829
 20
104.5314215814318
 11
1933.18718433538
 21
105.5879419304649
 72
     1
 10
1933.18718433538
 20
105.5879419304649
 11
1933.94184172755
 21
106.7926724946429
 72
     1
 10
1933.94184172755
 20
106.7926724946429
 11
1934.577722283109
 21
108.125
 72
     1
 10
1934.577722283109
 20
108.125
 11
1935.08394590947
 21
109.5621279535279
 72
     1
 10
1935.08394590947
 20
109.5621279535279
 11
1935.45185098003
 21
111.0794666974939
 72
     1
 10
1935.45185098003
 20
111.0794666974939
 11
1935.67514253702
 21
112.6510541453038
 72
     1
 10
1935.67514253702
 20
112.6510541453038
 11
1935.75
 21
114.25
 72
     1
 10
1935.75
 20
114.25
 11
1935.67514253702
 21
115.8489458546959
 72
     1
 10
1935.67514253702
 20
115.8489458546959
 11
1935.45185098003
 21
117.4205333025059
 72
     1
 10
1935.45185098003
 20
117.4205333025059
 11
1935.08394590947
 21
118.9378720464719
 72
     1
 10
1935.08394590947
 20
118.9378720464719
 11
1934.577722283109
 21
120.375
 72
     1
 10
1934.577722283109
 20
120.375
 11
1933.94184172755
 21
121.7073275053569
 72
     1
 10
1933.94184172755
 20
121.7073275053569
 11
1933.18718433538
 21
122.912058069535
 72
     1
 10
1933.18718433538
 20
122.912058069535
 11
1932.326662503829
 21
123.968578418568
 72
     1
 10
1932.326662503829
 20
123.968578418568
 11
1931.375
 21
124.8588111963589
 72
     1
 10
1931.375
 20
124.8588111963589
 11
1930.348480033189
 21
125.5675242732629
 72
     1
 10
1930.348480033189
 20
125.5675242732629
 11
1929.264666644649
 21
126.0825913720409
 72
     1
 10
1929.264666644649
 20
126.0825913720409
 11
1928.142104181929
 21
126.3951995518288
 72
     1
 10
1928.142104181929
 20
126.3951995518288
 11
1927.0
 21
126.5
 97
        1
330
2839
 92
       16
 93
       45
 72
     1
 10
1932.25
 20
114.25
 11
1932.19890736089
 21
115.4677646334009
 72
     1
 10
1932.19890736089
 20
115.4677646334009
 11
1932.04662390368
 21
116.6618268633989
 72
     1
 10
1932.04662390368
 20
116.6618268633989
 11
1931.79611365262
 21
117.8089456269129
 72
     1
 10
1931.79611365262
 20
117.8089456269129
 11
1931.45225250482
 21
118.8867935620409
 72
     1
 10
1931.45225250482
 20
118.8867935620409
 11
1931.02173332638
 21
119.8743915847568
 72
     1
 10
1931.02173332638
 20
119.8743915847568
 11
1930.512935683379
 21
120.7525172229269
 72
     1
 10
1930.512935683379
 20
120.7525172229269
 11
1929.935762743219
 21
121.504078759857
 72
     1
 10
1929.935762743219
 20
121.504078759857
 11
1929.301448520639
 21
122.114447905118
 72
     1
 10
1929.301448520639
 20
122.114447905118
 11
1928.62233922047
 21
122.571744517583
 72
     1
 10
1928.62233922047
 20
122.571744517583
 11
1927.911652932749
 21
122.8670678388569
 72
     1
 10
1927.911652932749
 20
122.8670678388569
 11
1927.183222357689
 21
122.9946697364169
 72
     1
 10
1927.183222357689
 20
122.9946697364169
 11
1926.45122556785
 21
122.9520665844719
 72
     1
 10
1926.45122556785
 20
122.9520665844719
 11
1925.729910048099
 21
122.740087604915
 72
     1
 10
1925.729910048099
 20
122.740087604915
 11
1925.03331538457
 21
122.3628587274589
 72
     1
 10
1925.03331538457
 20
122.3628587274589
 11
1924.375
 21
121.8277222831138
 72
     1
 10
1924.375
 20
121.8277222831138
 11
1923.767777254538
 21
121.145094094059
 72
     1
 10
1923.767777254538
 20
121.145094094059
 11
1923.223466048219
 21
120.328260741516
 72
     1
 10
1923.223466048219
 20
120.328260741516
 11
1922.752660779529
 21
119.3931209575589
 72
     1
 10
1922.752660779529
 20
119.3931209575589
 11
1922.36452513749
 21
118.357876174377
 72
     1
 10
1922.36452513749
 20
118.357876174377
 11
1922.066613740869
 21
117.2426762540998
 72
     1
 10
1922.066613740869
 20
117.2426762540998
 11
1921.864725096148
 21
116.0692272946549
 72
     1
 10
1921.864725096148
 20
116.0692272946549
 11
1921.762788736138
 21
114.8603691452608
 72
     1
 10
1921.762788736138
 20
114.8603691452608
 11
1921.762788736138
 21
113.6396308547388
 72
     1
 10
1921.762788736138
 20
113.6396308547388
 11
1921.864725096148
 21
112.430772705345
 72
     1
 10
1921.864725096148
 20
112.430772705345
 11
1922.066613740869
 21
111.2573237458999
 72
     1
 10
1922.066613740869
 20
111.2573237458999
 11
1922.36452513749
 21
110.142123825624
 72
     1
 10
1922.36452513749
 20
110.142123825624
 11
1922.752660779529
 21
109.106879042441
 72
     1
 10
1922.752660779529
 20
109.106879042441
 11
1923.223466048219
 21
108.171739258484
 72
     1
 10
1923.223466048219
 20
108.171739258484
 11
1923.767777254538
 21
107.3549059059409
 72
     1
 10
1923.767777254538
 20
107.3549059059409
 11
1924.375
 21
106.6722777168859
 72
     1
 10
1924.375
 20
106.6722777168859
 11
1925.03331538457
 21
106.137141272541
 72
     1
 10
1925.03331538457
 20
106.137141272541
 11
1925.729910048099
 21
105.7599123950849
 72
     1
 10
1925.729910048099
 20
105.7599123950849
 11
1926.45122556785
 21
105.5479334155279
 72
     1
 10
1926.45122556785
 20
105.5479334155279
 11
1927.183222357689
 21
105.5053302635828
 72
     1
 10
1927.183222357689
 20
105.5053302635828
 11
1927.911652932749
 21
105.632932161143
 72
     1
 10
1927.911652932749
 20
105.632932161143
 11
1928.62233922047
 21
105.9282554824169
 72
     1
 10
1928.62233922047
 20
105.9282554824169
 11
1929.301448520639
 21
106.3855520948819
 72
     1
 10
1929.301448520639
 20
106.3855520948819
 11
1929.935762743219
 21
106.9959212401429
 72
     1
 10
1929.935762743219
 20
106.9959212401429
 11
1930.512935683379
 21
107.747482777073
 72
     1
 10
1930.512935683379
 20
107.747482777073
 11
1931.02173332638
 21
108.625608415243
 72
     1
 10
1931.02173332638
 20
108.625608415243
 11
1931.45225250482
 21
109.6132064379599
 72
     1
 10
1931.45225250482
 20
109.6132064379599
 11
1931.79611365262
 21
110.6910543730869
 72
     1
 10
1931.79611365262
 20
110.6910543730869
 11
1932.04662390368
 21
111.838173136601
 72
     1
 10
1932.04662390368
 20
111.838173136601
 11
1932.19890736089
 21
113.032235366599
 72
     1
 10
1932.19890736089
 20
113.032235366599
 11
1932.25
 21
114.25
 97
        1
330
2838
 75
     0
 76
     1
 98
        1
 10
0.0
 20
0.0
  0
TEXT
  5
289C
330
18
100
AcDbEntity
  8
WAKU-MOJI
  6
Continuous
100
AcDbText
 10
2852.8
 20
191.0
 30
0.0
 40
40.0
  1
内部雷保護システム(動力盤)
 41
0.7
  7
M7
 72
     1
 11
3074.0
 21
211.0
 31
0.0
100
AcDbText
 73
     2
  0
LINE
  5
28B1
330
18
100
AcDbEntity
  8
1
  6
Continuous
100
AcDbLine
 10
3000.0
 20
1600.0
 30
0.0
 11
2100.0
 21
1600.0
 31
0.0
  0
LWPOLYLINE
  5
28B2
330
18
100
AcDbEntity
  8
KUROMARU
  6
Continuous
100
AcDbPolyline
 90
        2
 70
     1
 43
5.0
 10
2097.5
 20
1900.0
 42
1.0
 10
2102.5
 20
1900.0
 42
1.0
  0
TEXT
  5
2935
330
18
100
AcDbEntity
  8
1
  6
Continuous
100
AcDbText
 10
1162.499997920216
 20
1317.500001242067
 30
0.0
 40
40.0
  1
デーンガードMTT275FM同等品
 41
0.7
  7
M7
 11
1162.499997920216
 21
1337.500001242067
 31
0.0
100
AcDbText
 73
     2
  0
TEXT
  5
2936
330
18
100
AcDbEntity
  8
1
  6
Continuous
100
AcDbText
 10
1162.500005141301
 20
1112.499996310836
 30
0.0
 40
40.0
  1
避雷器形式：SPD故障表示、故障出力接点を有すること
 41
0.7
  7
M7
 11
1162.500005141301
 21
1132.499996310836
 31
0.0
100
AcDbText
 73
     2
  0
TEXT
  5
2937
330
18
100
AcDbEntity
  8
1
  6
Continuous
100
AcDbText
 10
1162.500005141301
 20
1162.499996310836
 30
0.0
 40
40.0
  1
制限電圧：1.5kV(20kA(8/20μs)時の値)
 41
0.7
  7
M7
 11
1162.500005141301
 21
1182.499996310836
 31
0.0
100
AcDbText
 73
     2
  0
TEXT
  5
2938
330
18
100
AcDbEntity
  8
1
  6
Continuous
100
AcDbText
 10
1162.500005141301
 20
1212.499996310836
 30
0.0
 40
40.0
  1
公称放電電流：20kA(8/20μs)
 41
0.7
  7
M7
 11
1162.500005141301
 21
1232.499996310836
 31
0.0
100
AcDbText
 73
     2
  0
TEXT
  5
293A
330
18
100
AcDbEntity
  8
1
  6
Continuous
100
AcDbText
 10
1017.372970599923
 20
378.7823164516111
 30
0.0
 40
40.0
  1
等電位ボンディング
 41
0.7
  7
M7
 72
     1
 11
1164.83963726659
 21
398.7823164516111
 31
0.0
100
AcDbText
 73
     2
  0
LINE
  5
293F
330
18
100
AcDbEntity
  8
SIN-JIS
  6
ByBlock
100
AcDbLine
 10
924.9999989202166
 20
1699.999999242067
 30
0.0
 11
924.9999989202166
 21
1639.999999242068
 31
0.0
  0
LINE
  5
2940
330
18
100
AcDbEntity
  8
SIN-JIS
  6
ByBlock
100
AcDbLine
 10
974.9999979202167
 20
1699.999999242067
 30
0.0
 11
974.9999979202167
 21
1639.999999242068
 31
0.0
  0
LINE
  5
2941
330
18
100
AcDbEntity
  8
SIN-JIS
  6
ByBlock
100
AcDbLine
 10
1024.999997920216
 20
1699.999999242067
 30
0.0
 11
1024.999997920216
 21
1639.999999242068
 31
0.0
  0
ARC
  5
2943
330
18
100
AcDbEntity
  8
1
  6
Continuous
100
AcDbCircle
 10
1024.999997920216
 20
1475.000001242066
 30
0.0
 40
12.5
100
AcDbArc
 50
0.0
 51
180.0
  0
LINE
  5
2946
330
18
100
AcDbEntity
  8
SIN-JIS
  6
ByBlock
100
AcDbLine
 10
1017.000119920216
 20
1631.999969242068
 30
0.0
 11
1032.999874920216
 21
1648.000030242067
 31
0.0
  0
LINE
  5
2947
330
18
100
AcDbEntity
  8
SIN-JIS
  6
ByBlock
100
AcDbLine
 10
1017.000119920216
 20
1648.000030242067
 30
0.0
 11
1032.999874920216
 21
1631.999969242068
 31
0.0
  0
LINE
  5
2959
330
18
100
AcDbEntity
  8
1
  6
Continuous
100
AcDbLine
 10
1024.999997920216
 20
675.0000012420676
 30
0.0
 11
1024.999997920216
 21
1050.000001242066
 31
0.0
  0
LINE
  5
295D
330
18
100
AcDbEntity
  8
SIN-JIS
  6
ByBlock
100
AcDbLine
 10
924.9999989202166
 20
1570.000000242067
 30
0.0
 11
924.9999940592172
 21
1374.999996551582
 31
0.0
  0
LINE
  5
295E
330
18
100
AcDbEntity
  8
SIN-JIS
  6
ByBlock
100
AcDbLine
 10
1024.999997920216
 20
1570.000000242067
 30
0.0
 11
1024.999994059217
 21
1374.999996551582
 31
0.0
  0
LINE
  5
297D
330
18
100
AcDbEntity
  8
SIN-JIS
  6
ByBlock
100
AcDbLine
 10
899.9999989202168
 20
1649.999999242067
 30
0.0
 11
924.9999989202166
 21
1570.000000242067
 31
0.0
  0
LINE
  5
297E
330
18
100
AcDbEntity
  8
SIN-JIS
  6
ByBlock
100
AcDbLine
 10
949.9999989202166
 20
1649.999999242067
 30
0.0
 11
974.9999979202167
 21
1570.000000242067
 31
0.0
  0
LINE
  5
297F
330
18
100
AcDbEntity
  8
SIN-JIS
  6
ByBlock
100
AcDbLine
 10
999.9999979202167
 20
1649.999999242067
 30
0.0
 11
1024.999997920216
 21
1570.000000242067
 31
0.0
  0
LINE
  5
2980
330
18
100
AcDbEntity
  8
SIN-JIS
  6
ByBlock
100
AcDbLine
 10
974.9999979202167
 20
1570.000000242067
 30
0.0
 11
974.9999979202167
 21
1475.000001242067
 31
0.0
  0
LINE
  5
2981
330
18
100
AcDbEntity
  8
1
  6
Continuous
100
AcDbLine
 10
974.9999979202167
 20
1475.000001242066
 30
0.0
 11
1012.499997920216
 21
1475.000001242066
 31
0.0
  0
LINE
  5
2982
330
18
100
AcDbEntity
  8
SIN-JIS
  6
HIDDEN
100
AcDbLine
 10
909.3749989202166
 20
1620.000000242067
 30
0.0
 11
1009.374997920216
 21
1620.000000242067
 31
0.0
  0
LINE
  5
2983
330
18
100
AcDbEntity
  8
SIN-JIS
  6
ByBlock
100
AcDbLine
 10
917.0001209202164
 20
1631.999969242068
 30
0.0
 11
932.9998769202166
 21
1648.000030242067
 31
0.0
  0
LINE
  5
2984
330
18
100
AcDbEntity
  8
SIN-JIS
  6
ByBlock
100
AcDbLine
 10
917.0001209202164
 20
1648.000030242067
 30
0.0
 11
932.9998769202166
 21
1631.999969242068
 31
0.0
  0
LINE
  5
2985
330
18
100
AcDbEntity
  8
SIN-JIS
  6
ByBlock
100
AcDbLine
 10
967.000119920217
 20
1631.999969242068
 30
0.0
 11
982.9998759202162
 21
1648.000030242067
 31
0.0
  0
LINE
  5
2986
330
18
100
AcDbEntity
  8
SIN-JIS
  6
ByBlock
100
AcDbLine
 10
967.000119920217
 20
1648.000030242067
 30
0.0
 11
982.9998759202162
 21
1631.999969242068
 31
0.0
  0
LINE
  5
298D
330
18
100
AcDbEntity
  8
1
  6
Continuous
100
AcDbLine
 10
1074.999997920216
 20
1050.000001242066
 30
0.0
 11
1074.999997920216
 21
900.0000012420677
 31
0.0
  0
TEXT
  5
298F
330
18
100
AcDbEntity
  8
1
  6
Continuous
100
AcDbText
 10
1162.500005141301
 20
1262.499996310836
 30
0.0
 40
40.0
  1
避雷器方式：酸化亜鉛素子
 41
0.7
  7
M7
 11
1162.500005141301
 21
1282.499996310836
 31
0.0
100
AcDbText
 73
     2
  0
TEXT
  5
2990
330
18
100
AcDbEntity
  8
1
  6
Continuous
100
AcDbText
 10
1074.999997920216
 20
1630.000001242066
 30
0.0
 40
40.0
  1
SPD保護用MCCB
 41
0.7
  7
M7
 11
1074.999997920216
 21
1650.000001242067
 31
0.0
100
AcDbText
 73
     2
  0
LINE
  5
2992
330
18
100
AcDbEntity
  8
SIN-JIS
  6
ByBlock
100
AcDbLine
 10
1074.999997920216
 20
1470.000000242068
 30
0.0
 11
1074.999994059216
 21
1374.999996551582
 31
0.0
  0
LINE
  5
2998
330
18
100
AcDbEntity
  8
1
  6
Continuous
100
AcDbLine
 10
1037.499997920216
 20
1475.000001242066
 30
0.0
 11
1074.999997920216
 21
1475.000001242066
 31
0.0
  0
LINE
  5
29AA
330
18
100
AcDbEntity
  8
1
  6
Continuous
100
AcDbLine
 10
975.0
 20
1900.0
 30
0.0
 11
975.0
 21
1775.0
 31
0.0
  0
LINE
  5
29AB
330
18
100
AcDbEntity
  8
1
  6
Continuous
100
AcDbLine
 10
975.0
 20
1775.0
 30
0.0
 11
925.0
 21
1750.0
 31
0.0
  0
LINE
  5
29AD
330
18
100
AcDbEntity
  8
1
  6
Continuous
100
AcDbLine
 10
925.0
 20
1750.0
 30
0.0
 11
925.0
 21
1700.0
 31
0.0
  0
LINE
  5
29AE
330
18
100
AcDbEntity
  8
1
  6
Continuous
100
AcDbLine
 10
975.0
 20
1775.0
 30
0.0
 11
1025.0
 21
1750.0
 31
0.0
  0
LINE
  5
29AF
330
18
100
AcDbEntity
  8
1
  6
Continuous
100
AcDbLine
 10
1025.0
 20
1750.0
 30
0.0
 11
1025.0
 21
1700.0
 31
0.0
  0
LINE
  5
29B0
330
18
100
AcDbEntity
  8
1
  6
Continuous
100
AcDbLine
 10
975.0
 20
1775.0
 30
0.0
 11
975.0
 21
1700.0
 31
0.0
  0
INSERT
  5
29FD
330
18
100
AcDbEntity
  8
1
  6
Continuous
100
AcDbBlockReference
 66
     1
  2
AP04
 10
2100.0
 20
1400.000001999999
 30
0.0
  0
ATTRIB
  5
29FE
330
29FD
100
AcDbEntity
  8
ZOKUSEI
  6
Continuous
100
AcDbText
 10
2093.499999999999
 20
1298.000001999999
 30
0.0
 40
30.0
  1
A
 41
0.7
  7
M7
 72
     1
 11
2100.499999999999
 21
1313.000001999999
 31
0.0
100
AcDbAttribute
  2
KIGO
 70
     8
 74
     2
  0
ATTRIB
  5
29FF
330
29FD
100
AcDbEntity
  8
ZOKUSEI
  6
Continuous
100
AcDbText
 10
2091.904761904761
 20
1262.414119452904
 30
0.0
 40
25.0
  1
1
 41
0.8
  7
M8
 72
     1
 11
2099.999999999999
 21
1262.414119452904
 31
0.0
100
AcDbAttribute
  2
BANGO
 70
     0
  0
ATTRIB
  5
2A00
330
29FD
100
AcDbEntity
  8
ZOKUSEI
100
AcDbText
 10
2150.0
 20
1317.500002
 30
0.0
 40
25.0
  1
20A
 41
0.7
  7
M7
 11
2150.0
 21
1330.000002
 31
0.0
100
AcDbAttribute
  2
TEIKAKU1
 70
     0
 74
     2
  0
ATTRIB
  5
2A01
330
29FD
100
AcDbEntity
  8
ZOKUSEI
100
AcDbText
 10
2150.0
 20
1287.500001999998
 30
0.0
 40
25.0
  1
2倍延長目盛
 41
0.7
  7
M7
 11
2150.0
 21
1300.000001999999
 31
0.0
100
AcDbAttribute
  2
TEIKAKU2
 70
     0
 74
     2
  0
ATTRIB
  5
2A02
330
29FD
100
AcDbEntity
  8
ZOKUSEI
100
AcDbText
 10
2150.0
 20
1257.500001999998
 30
0.0
 40
25.0
  1
赤色指針付
 41
0.7
  7
M7
 11
2150.0
 21
1270.000001999998
 31
0.0
100
AcDbAttribute
  2
TEIKAKU3
 70
     0
 74
     2
  0
SEQEND
  5
2A03
330
29FD
100
AcDbEntity
  8
1
  6
Continuous
  0
INSERT
  5
2A04
330
18
100
AcDbEntity
  8
1
  6
Continuous
100
AcDbBlockReference
 66
     1
  2
AP04
 10
2700.0
 20
1400.000001999999
 30
0.0
  0
ATTRIB
  5
2A05
330
2A04
100
AcDbEntity
  8
ZOKUSEI
  6
Continuous
100
AcDbText
 10
2693.499999999999
 20
1298.000001999999
 30
0.0
 40
30.0
  1
A
 41
0.7
  7
M7
 72
     1
 11
2700.499999999999
 21
1313.000001999999
 31
0.0
100
AcDbAttribute
  2
KIGO
 70
     8
 74
     2
  0
ATTRIB
  5
2A06
330
2A04
100
AcDbEntity
  8
ZOKUSEI
  6
Continuous
100
AcDbText
 10
2690.476190476189
 20
1262.414119452904
 30
0.0
 40
25.0
  1
3
 41
0.8
  7
M8
 72
     1
 11
2699.999999999999
 21
1262.414119452904
 31
0.0
100
AcDbAttribute
  2
BANGO
 70
     0
  0
ATTRIB
  5
2A07
330
2A04
100
AcDbEntity
  8
ZOKUSEI
100
AcDbText
 10
2750.0
 20
1317.500002
 30
0.0
 40
25.0
  1
5A
 41
0.7
  7
M7
 11
2750.0
 21
1330.000002
 31
0.0
100
AcDbAttribute
  2
TEIKAKU1
 70
     0
 74
     2
  0
ATTRIB
  5
2A08
330
2A04
100
AcDbEntity
  8
ZOKUSEI
100
AcDbText
 10
2750.0
 20
1287.500001999998
 30
0.0
 40
25.0
  1
2倍延長目盛
 41
0.7
  7
M7
 11
2750.0
 21
1300.000001999999
 31
0.0
100
AcDbAttribute
  2
TEIKAKU2
 70
     0
 74
     2
  0
ATTRIB
  5
2A09
330
2A04
100
AcDbEntity
  8
ZOKUSEI
100
AcDbText
 10
2750.0
 20
1257.500001999998
 30
0.0
 40
25.0
  1
赤色指針付
 41
0.7
  7
M7
 11
2750.0
 21
1270.000001999998
 31
0.0
100
AcDbAttribute
  2
TEIKAKU3
 70
     0
 74
     2
  0
SEQEND
  5
2A0A
330
2A04
100
AcDbEntity
  8
1
  6
Continuous
  0
INSERT
  5
2A0B
330
18
100
AcDbEntity
  8
1
  6
Continuous
100
AcDbBlockReference
 66
     1
  2
AP04
 10
2400.0
 20
1400.000001999999
 30
0.0
  0
ATTRIB
  5
2A0C
330
2A0B
100
AcDbEntity
  8
ZOKUSEI
  6
Continuous
100
AcDbText
 10
2393.5
 20
1298.000001999999
 30
0.0
 40
30.0
  1
A
 41
0.7
  7
M7
 72
     1
 11
2400.5
 21
1313.000001999999
 31
0.0
100
AcDbAttribute
  2
KIGO
 70
     8
 74
     2
  0
ATTRIB
  5
2A0D
330
2A0B
100
AcDbEntity
  8
ZOKUSEI
  6
Continuous
100
AcDbText
 10
2390.476190476189
 20
1262.414119452904
 30
0.0
 40
25.0
  1
2
 41
0.8
  7
M8
 72
     1
 11
2399.999999999999
 21
1262.414119452904
 31
0.0
100
AcDbAttribute
  2
BANGO
 70
     0
  0
ATTRIB
  5
2A0E
330
2A0B
100
AcDbEntity
  8
ZOKUSEI
100
AcDbText
 10
2450.0
 20
1317.500002
 30
0.0
 40
25.0
  1
20A
 41
0.7
  7
M7
 11
2450.0
 21
1330.000002
 31
0.0
100
AcDbAttribute
  2
TEIKAKU1
 70
     0
 74
     2
  0
ATTRIB
  5
2A0F
330
2A0B
100
AcDbEntity
  8
ZOKUSEI
100
AcDbText
 10
2450.0
 20
1287.500001999998
 30
0.0
 40
25.0
  1
2倍延長目盛
 41
0.7
  7
M7
 11
2450.0
 21
1300.000001999999
 31
0.0
100
AcDbAttribute
  2
TEIKAKU2
 70
     0
 74
     2
  0
ATTRIB
  5
2A10
330
2A0B
100
AcDbEntity
  8
ZOKUSEI
100
AcDbText
 10
2450.0
 20
1257.500001999998
 30
0.0
 40
25.0
  1
赤色指針付
 41
0.7
  7
M7
 11
2450.0
 21
1270.000001999998
 31
0.0
100
AcDbAttribute
  2
TEIKAKU3
 70
     0
 74
     2
  0
SEQEND
  5
2A11
330
2A0B
100
AcDbEntity
  8
1
  6
Continuous
  0
INSERT
  5
2A12
330
18
100
AcDbEntity
  8
1
  6
Continuous
100
AcDbBlockReference
 66
     1
  2
AP04
 10
3000.0
 20
1400.000001999999
 30
0.0
  0
ATTRIB
  5
2A13
330
2A12
100
AcDbEntity
  8
ZOKUSEI
  6
Continuous
100
AcDbText
 10
2993.5
 20
1298.000001999999
 30
0.0
 40
30.0
  1
A
 41
0.7
  7
M7
 72
     1
 11
3000.5
 21
1313.000001999999
 31
0.0
100
AcDbAttribute
  2
KIGO
 70
     8
 74
     2
  0
ATTRIB
  5
2A14
330
2A12
100
AcDbEntity
  8
ZOKUSEI
  6
Continuous
100
AcDbText
 10
2990.0
 20
1262.414119452904
 30
0.0
 40
25.0
  1
4
 41
0.8
  7
M8
 72
     1
 11
3000.0
 21
1262.414119452904
 31
0.0
100
AcDbAttribute
  2
BANGO
 70
     0
  0
ATTRIB
  5
2A15
330
2A12
100
AcDbEntity
  8
ZOKUSEI
100
AcDbText
 10
3050.0
 20
1317.500002
 30
0.0
 40
25.0
  1
5A
 41
0.7
  7
M7
 11
3050.0
 21
1330.000002
 31
0.0
100
AcDbAttribute
  2
TEIKAKU1
 70
     0
 74
     2
  0
ATTRIB
  5
2A16
330
2A12
100
AcDbEntity
  8
ZOKUSEI
100
AcDbText
 10
3050.0
 20
1287.500001999998
 30
0.0
 40
25.0
  1
2倍延長目盛
 41
0.7
  7
M7
 11
3050.0
 21
1300.000001999999
 31
0.0
100
AcDbAttribute
  2
TEIKAKU2
 70
     0
 74
     2
  0
ATTRIB
  5
2A17
330
2A12
100
AcDbEntity
  8
ZOKUSEI
100
AcDbText
 10
3050.0
 20
1257.500001999998
 30
0.0
 40
25.0
  1
赤色指針付
 41
0.7
  7
M7
 11
3050.0
 21
1270.000001999998
 31
0.0
100
AcDbAttribute
  2
TEIKAKU3
 70
     0
 74
     2
  0
SEQEND
  5
2A18
330
2A12
100
AcDbEntity
  8
1
  6
Continuous
  0
LINE
  5
2A19
330
18
100
AcDbEntity
  8
1
  6
Continuous
100
AcDbLine
 10
3000.0
 20
1050.000001999998
 30
0.0
 11
3000.0
 21
1200.000001999999
 31
0.0
  0
LINE
  5
2A1A
330
18
100
AcDbEntity
  8
1
  6
Continuous
100
AcDbLine
 10
2700.0
 20
1050.000001999998
 30
0.0
 11
2700.0
 21
1200.000001999999
 31
0.0
  0
LINE
  5
2A1B
330
18
100
AcDbEntity
  8
1
  6
Continuous
100
AcDbLine
 10
2400.0
 20
1050.000001999998
 30
0.0
 11
2400.0
 21
1200.000001999999
 31
0.0
  0
LINE
  5
2A1C
330
18
100
AcDbEntity
  8
1
  6
Continuous
100
AcDbLine
 10
2100.0
 20
1050.000001999998
 30
0.0
 11
2100.0
 21
1200.000001999999
 31
0.0
  0
INSERT
  5
2A1D
330
18
100
AcDbEntity
  8
1
  6
Continuous
100
AcDbBlockReference
 66
     1
  2
AP06
 10
2100.0
 20
1050.000001999998
 30
0.0
  0
ATTRIB
  5
2A1E
330
2A1D
100
AcDbEntity
  8
ZOKUSEI
  6
Continuous
100
AcDbText
 10
2125.0
 20
987.500002999999
 30
0.0
 40
25.0
  1
52
 41
0.7
  7
M7
 11
2125.0
 21
1000.000002999999
 31
0.0
100
AcDbAttribute
  2
KIGO
 70
     8
 74
     2
  0
ATTRIB
  5
2A1F
330
2A1D
100
AcDbEntity
  8
ZOKUSEI
  6
Continuous
100
AcDbText
 10
2125.0
 20
950.5000029999996
 30
0.0
 40
25.0
  1
1
 41
0.7
  7
M7
 11
2125.0
 21
963.0000029999996
 31
0.0
100
AcDbAttribute
  2
BANGO
 70
     0
 74
     2
  0
ATTRIB
  5
2A20
330
2A1D
100
AcDbEntity
  8
ZOKUSEI
  6
Continuous
100
AcDbText
 10
2125.0
 20
912.5000029999997
 30
0.0
 40
25.0
  1

 41
0.7
  7
M7
 11
2125.0
 21
925.0000029999997
 31
0.0
100
AcDbAttribute
  2
KATASIKI
 70
     0
 74
     2
  0
ATTRIB
  5
2A21
330
2A1D
100
AcDbEntity
  8
ZOKUSEI
  6
Continuous
100
AcDbText
 10
2125.0
 20
875.0000019999996
 30
0.0
 40
25.0
  1
49
 41
0.7
  7
M7
 11
2125.0
 21
887.5000019999996
 31
0.0
100
AcDbAttribute
  2
KIGO
 70
     8
 74
     2
  0
ATTRIB
  5
2A22
330
2A1D
100
AcDbEntity
  8
ZOKUSEI
  6
Continuous
100
AcDbText
 10
2188.0
 20
875.0000019999996
 30
0.0
 40
25.0
  1
1
 41
0.7
  7
M7
 11
2188.0
 21
887.5000019999996
 31
0.0
100
AcDbAttribute
  2
BANGO
 70
     0
 74
     2
  0
ATTRIB
  5
2A23
330
2A1D
100
AcDbEntity
  8
ZOKUSEI
  6
Continuous
100
AcDbText
 10
2125.0
 20
837.0000019999997
 30
0.0
 40
25.0
  1
(12～18A)
 41
0.7
  7
M7
 11
2125.0
 21
849.5000019999997
 31
0.0
100
AcDbAttribute
  2
TEIKAKU1
 70
     0
 74
     2
  0
ATTRIB
  5
2A24
330
2A1D
100
AcDbEntity
  8
ZOKUSEI
  6
Continuous
100
AcDbText
 10
2125.0
 20
800.0000019999996
 30
0.0
 40
25.0
  1
2E
 41
0.7
  7
M7
 11
2125.0
 21
812.5000019999996
 31
0.0
100
AcDbAttribute
  2
TEIKAKU2
 70
     8
 74
     2
  0
SEQEND
  5
2A25
330
2A1D
100
AcDbEntity
  8
1
  6
Continuous
  0
INSERT
  5
2A26
330
18
100
AcDbEntity
  8
1
  6
Continuous
100
AcDbBlockReference
 66
     1
  2
AP06
 10
2700.0
 20
1050.000001999998
 30
0.0
  0
ATTRIB
  5
2A27
330
2A26
100
AcDbEntity
  8
ZOKUSEI
  6
Continuous
100
AcDbText
 10
2725.0
 20
987.500002999999
 30
0.0
 40
25.0
  1
52
 41
0.7
  7
M7
 11
2725.0
 21
1000.000002999999
 31
0.0
100
AcDbAttribute
  2
KIGO
 70
     8
 74
     2
  0
ATTRIB
  5
2A28
330
2A26
100
AcDbEntity
  8
ZOKUSEI
  6
Continuous
100
AcDbText
 10
2725.0
 20
950.5000029999996
 30
0.0
 40
25.0
  1
3
 41
0.7
  7
M7
 11
2725.0
 21
963.0000029999996
 31
0.0
100
AcDbAttribute
  2
BANGO
 70
     0
 74
     2
  0
ATTRIB
  5
2A29
330
2A26
100
AcDbEntity
  8
ZOKUSEI
  6
Continuous
100
AcDbText
 10
2725.0
 20
912.5000029999997
 30
0.0
 40
25.0
  1

 41
0.7
  7
M7
 11
2725.0
 21
925.0000029999997
 31
0.0
100
AcDbAttribute
  2
KATASIKI
 70
     0
 74
     2
  0
ATTRIB
  5
2A2A
330
2A26
100
AcDbEntity
  8
ZOKUSEI
  6
Continuous
100
AcDbText
 10
2725.0
 20
875.0000019999996
 30
0.0
 40
25.0
  1
49
 41
0.7
  7
M7
 11
2725.0
 21
887.5000019999996
 31
0.0
100
AcDbAttribute
  2
KIGO
 70
     8
 74
     2
  0
ATTRIB
  5
2A2B
330
2A26
100
AcDbEntity
  8
ZOKUSEI
  6
Continuous
100
AcDbText
 10
2788.0
 20
875.0000019999996
 30
0.0
 40
25.0
  1
3
 41
0.7
  7
M7
 11
2788.0
 21
887.5000019999996
 31
0.0
100
AcDbAttribute
  2
BANGO
 70
     0
 74
     2
  0
ATTRIB
  5
2A2C
330
2A26
100
AcDbEntity
  8
ZOKUSEI
  6
Continuous
100
AcDbText
 10
2725.0
 20
837.0000019999997
 30
0.0
 40
25.0
  1
(2.8～4.4A)
 41
0.7
  7
M7
 11
2725.0
 21
849.5000019999997
 31
0.0
100
AcDbAttribute
  2
TEIKAKU1
 70
     0
 74
     2
  0
ATTRIB
  5
2A2D
330
2A26
100
AcDbEntity
  8
ZOKUSEI
  6
Continuous
100
AcDbText
 10
2725.0
 20
800.0000019999996
 30
0.0
 40
25.0
  1
2E
 41
0.7
  7
M7
 11
2725.0
 21
812.5000019999996
 31
0.0
100
AcDbAttribute
  2
TEIKAKU2
 70
     8
 74
     2
  0
SEQEND
  5
2A2E
330
2A26
100
AcDbEntity
  8
1
  6
Continuous
  0
INSERT
  5
2A2F
330
18
100
AcDbEntity
  8
1
  6
Continuous
100
AcDbBlockReference
 66
     1
  2
AP06
 10
2400.0
 20
1050.000001999998
 30
0.0
  0
ATTRIB
  5
2A30
330
2A2F
100
AcDbEntity
  8
ZOKUSEI
  6
Continuous
100
AcDbText
 10
2425.0
 20
987.500002999999
 30
0.0
 40
25.0
  1
52
 41
0.7
  7
M7
 11
2425.0
 21
1000.000002999999
 31
0.0
100
AcDbAttribute
  2
KIGO
 70
     8
 74
     2
  0
ATTRIB
  5
2A31
330
2A2F
100
AcDbEntity
  8
ZOKUSEI
  6
Continuous
100
AcDbText
 10
2425.0
 20
950.5000029999996
 30
0.0
 40
25.0
  1
2
 41
0.7
  7
M7
 11
2425.0
 21
963.0000029999996
 31
0.0
100
AcDbAttribute
  2
BANGO
 70
     0
 74
     2
  0
ATTRIB
  5
2A32
330
2A2F
100
AcDbEntity
  8
ZOKUSEI
  6
Continuous
100
AcDbText
 10
2425.0
 20
912.5000029999997
 30
0.0
 40
25.0
  1

 41
0.7
  7
M7
 11
2425.0
 21
925.0000029999997
 31
0.0
100
AcDbAttribute
  2
KATASIKI
 70
     0
 74
     2
  0
ATTRIB
  5
2A33
330
2A2F
100
AcDbEntity
  8
ZOKUSEI
  6
Continuous
100
AcDbText
 10
2425.0
 20
875.0000019999996
 30
0.0
 40
25.0
  1
49
 41
0.7
  7
M7
 11
2425.0
 21
887.5000019999996
 31
0.0
100
AcDbAttribute
  2
KIGO
 70
     8
 74
     2
  0
ATTRIB
  5
2A34
330
2A2F
100
AcDbEntity
  8
ZOKUSEI
  6
Continuous
100
AcDbText
 10
2488.0
 20
875.0000019999996
 30
0.0
 40
25.0
  1
2
 41
0.7
  7
M7
 11
2488.0
 21
887.5000019999996
 31
0.0
100
AcDbAttribute
  2
BANGO
 70
     0
 74
     2
  0
ATTRIB
  5
2A35
330
2A2F
100
AcDbEntity
  8
ZOKUSEI
  6
Continuous
100
AcDbText
 10
2425.0
 20
837.0000019999997
 30
0.0
 40
25.0
  1
(12～18A)
 41
0.7
  7
M7
 11
2425.0
 21
849.5000019999997
 31
0.0
100
AcDbAttribute
  2
TEIKAKU1
 70
     0
 74
     2
  0
ATTRIB
  5
2A36
330
2A2F
100
AcDbEntity
  8
ZOKUSEI
  6
Continuous
100
AcDbText
 10
2425.0
 20
800.0000019999996
 30
0.0
 40
25.0
  1
2E
 41
0.7
  7
M7
 11
2425.0
 21
812.5000019999996
 31
0.0
100
AcDbAttribute
  2
TEIKAKU2
 70
     8
 74
     2
  0
SEQEND
  5
2A37
330
2A2F
100
AcDbEntity
  8
1
  6
Continuous
  0
INSERT
  5
2A38
330
18
100
AcDbEntity
  8
1
  6
Continuous
100
AcDbBlockReference
 66
     1
  2
AP06
 10
3000.0
 20
1050.000001999998
 30
0.0
  0
ATTRIB
  5
2A39
330
2A38
100
AcDbEntity
  8
ZOKUSEI
  6
Continuous
100
AcDbText
 10
3025.0
 20
987.500002999999
 30
0.0
 40
25.0
  1
52
 41
0.7
  7
M7
 11
3025.0
 21
1000.000002999999
 31
0.0
100
AcDbAttribute
  2
KIGO
 70
     8
 74
     2
  0
ATTRIB
  5
2A3A
330
2A38
100
AcDbEntity
  8
ZOKUSEI
  6
Continuous
100
AcDbText
 10
3025.0
 20
950.5000029999996
 30
0.0
 40
25.0
  1
4
 41
0.7
  7
M7
 11
3025.0
 21
963.0000029999996
 31
0.0
100
AcDbAttribute
  2
BANGO
 70
     0
 74
     2
  0
ATTRIB
  5
2A3B
330
2A38
100
AcDbEntity
  8
ZOKUSEI
  6
Continuous
100
AcDbText
 10
3025.0
 20
912.5000029999997
 30
0.0
 40
25.0
  1

 41
0.7
  7
M7
 11
3025.0
 21
925.0000029999997
 31
0.0
100
AcDbAttribute
  2
KATASIKI
 70
     0
 74
     2
  0
ATTRIB
  5
2A3C
330
2A38
100
AcDbEntity
  8
ZOKUSEI
  6
Continuous
100
AcDbText
 10
3025.0
 20
875.0000019999996
 30
0.0
 40
25.0
  1
49
 41
0.7
  7
M7
 11
3025.0
 21
887.5000019999996
 31
0.0
100
AcDbAttribute
  2
KIGO
 70
     8
 74
     2
  0
ATTRIB
  5
2A3D
330
2A38
100
AcDbEntity
  8
ZOKUSEI
  6
Continuous
100
AcDbText
 10
3088.0
 20
875.0000019999996
 30
0.0
 40
25.0
  1
4
 41
0.7
  7
M7
 11
3088.0
 21
887.5000019999996
 31
0.0
100
AcDbAttribute
  2
BANGO
 70
     0
 74
     2
  0
ATTRIB
  5
2A3E
330
2A38
100
AcDbEntity
  8
ZOKUSEI
  6
Continuous
100
AcDbText
 10
3025.0
 20
837.0000019999997
 30
0.0
 40
25.0
  1
(2.8～4.4A)
 41
0.7
  7
M7
 11
3025.0
 21
849.5000019999997
 31
0.0
100
AcDbAttribute
  2
TEIKAKU1
 70
     0
 74
     2
  0
ATTRIB
  5
2A3F
330
2A38
100
AcDbEntity
  8
ZOKUSEI
  6
Continuous
100
AcDbText
 10
3025.0
 20
800.0000019999996
 30
0.0
 40
25.0
  1
2E
 41
0.7
  7
M7
 11
3025.0
 21
812.5000019999996
 31
0.0
100
AcDbAttribute
  2
TEIKAKU2
 70
     8
 74
     2
  0
SEQEND
  5
2A40
330
2A38
100
AcDbEntity
  8
1
  6
Continuous
  0
INSERT
  5
2A8D
330
18
100
AcDbEntity
  8
1
  6
Continuous
100
AcDbBlockReference
 66
     1
  2
AP02
 10
2100.0
 20
1600.0
 30
0.0
  0
ATTRIB
  5
2A8E
330
2A8D
100
AcDbEntity
  8
ZOKUSEI
  6
ByBlock
100
AcDbText
 10
2150.0
 20
1530.000000999999
 30
0.0
 40
25.0
  1
ELCB
 41
0.7
  7
M7
100
AcDbAttribute
  2
KIGO
 70
     8
  0
ATTRIB
  5
2A8F
330
2A8D
100
AcDbEntity
  8
ZOKUSEI
  6
ByBlock
100
AcDbText
 10
2240.000001000001
 20
1530.000008963063
 30
0.0
 40
25.0
  1
1
 41
0.7
  7
M7
100
AcDbAttribute
  2
BANGO
 70
     0
  0
ATTRIB
  5
2A90
330
2A8D
100
AcDbEntity
  8
ZOKUSEI
100
AcDbText
 10
2149.999998000001
 20
1500.000001
 30
0.0
 40
25.0
  1
3P
 41
0.7
  7
M7
100
AcDbAttribute
  2
KYOKU
 70
     0
  0
ATTRIB
  5
2A91
330
2A8D
100
AcDbEntity
  8
ZOKUSEI
100
AcDbText
 10
2189.999998999999
 20
1499.999993036936
 30
0.0
 40
25.0
  1
50AF
 41
0.7
  7
M7
100
AcDbAttribute
  2
TEIKAKU1
 70
     0
  0
ATTRIB
  5
2A92
330
2A8D
100
AcDbEntity
  8
ZOKUSEI
100
AcDbText
 10
2189.999998999999
 20
1469.999993036935
 30
0.0
 40
25.0
  1
50AT
 41
0.7
  7
M7
100
AcDbAttribute
  2
TEIKAKU2
 70
     0
  0
ATTRIB
  5
2A93
330
2A8D
100
AcDbEntity
  8
ZOKUSEI
100
AcDbText
 10
2190.000000000002
 20
1440.000001999999
 30
0.0
 40
25.0
  1
30mA
 41
0.7
  7
M7
100
AcDbAttribute
  2
TEIKAKU3
 70
     0
  0
ATTRIB
  5
2A94
330
2A8D
100
AcDbEntity
  8
ZOKUSEI
100
AcDbText
 10
2150.000000000001
 20
1410.000001999999
 30
0.0
 40
25.0
  1

 41
0.7
  7
M7
100
AcDbAttribute
  2
KATA
 70
     0
  0
SEQEND
  5
2A95
330
2A8D
100
AcDbEntity
  8
1
  6
Continuous
  0
INSERT
  5
2A96
330
18
100
AcDbEntity
  8
1
  6
Continuous
100
AcDbBlockReference
 66
     1
  2
AP02
 10
2700.0
 20
1600.0
 30
0.0
  0
ATTRIB
  5
2A97
330
2A96
100
AcDbEntity
  8
ZOKUSEI
  6
ByBlock
100
AcDbText
 10
2750.0
 20
1530.000000999999
 30
0.0
 40
25.0
  1
ELCB
 41
0.7
  7
M7
100
AcDbAttribute
  2
KIGO
 70
     8
  0
ATTRIB
  5
2A98
330
2A96
100
AcDbEntity
  8
ZOKUSEI
  6
ByBlock
100
AcDbText
 10
2840.000001000001
 20
1530.000008963063
 30
0.0
 40
25.0
  1
3
 41
0.7
  7
M7
100
AcDbAttribute
  2
BANGO
 70
     0
  0
ATTRIB
  5
2A99
330
2A96
100
AcDbEntity
  8
ZOKUSEI
100
AcDbText
 10
2749.999998000001
 20
1500.000001
 30
0.0
 40
25.0
  1
3P
 41
0.7
  7
M7
100
AcDbAttribute
  2
KYOKU
 70
     0
  0
ATTRIB
  5
2A9A
330
2A96
100
AcDbEntity
  8
ZOKUSEI
100
AcDbText
 10
2789.999998999999
 20
1499.999993036936
 30
0.0
 40
25.0
  1
50AF
 41
0.7
  7
M7
100
AcDbAttribute
  2
TEIKAKU1
 70
     0
  0
ATTRIB
  5
2A9B
330
2A96
100
AcDbEntity
  8
ZOKUSEI
100
AcDbText
 10
2789.999998999999
 20
1469.999993036935
 30
0.0
 40
25.0
  1
15AT
 41
0.7
  7
M7
100
AcDbAttribute
  2
TEIKAKU2
 70
     0
  0
ATTRIB
  5
2A9C
330
2A96
100
AcDbEntity
  8
ZOKUSEI
100
AcDbText
 10
2790.000000000002
 20
1440.000001999999
 30
0.0
 40
25.0
  1
30mA
 41
0.7
  7
M7
100
AcDbAttribute
  2
TEIKAKU3
 70
     0
  0
ATTRIB
  5
2A9D
330
2A96
100
AcDbEntity
  8
ZOKUSEI
100
AcDbText
 10
2750.000000000001
 20
1410.000001999999
 30
0.0
 40
25.0
  1

 41
0.7
  7
M7
100
AcDbAttribute
  2
KATA
 70
     0
  0
SEQEND
  5
2A9E
330
2A96
100
AcDbEntity
  8
1
  6
Continuous
  0
ARC
  5
2AB1
330
18
100
AcDbEntity
  8
KYU-JIS
  6
ByBlock
100
AcDbCircle
 10
314.1667180000004
 20
1900.000001
 30
0.0
 40
60.83331999999999
100
AcDbArc
 50
321.8411560000021
 51
38.15883999999808
  0
LWPOLYLINE
  5
2AB2
330
18
100
AcDbEntity
  8
KYU-JIS
  6
ByBlock
100
AcDbPolyline
 90
        5
 70
     0
 43
0.0
 10
370.0
 20
1840.000001999999
 10
330.0
 20
1832.500001999999
 10
370.0
 20
1825.000001999999
 10
330.0
 20
1817.500002
 10
370.0
 20
1810.000001999999
  0
LINE
  5
2AB3
330
18
100
AcDbEntity
  8
KYU-JIS
  6
ByBlock
100
AcDbLine
 10
350.0
 20
1850.000001999999
 30
0.0
 11
350.0
 21
1800.000001999999
 31
0.0
  0
CIRCLE
  5
2ABA
330
18
100
AcDbEntity
  8
KYU-JIS
  6
ByBlock
100
AcDbCircle
 10
350.0
 20
1858.000031999998
 30
0.0
 40
8.0
  0
LWPOLYLINE
  5
2ABB
330
18
100
AcDbEntity
  8
KYU-JIS
  6
ByBlock
100
AcDbPolyline
 90
        4
 70
     0
 43
0.0
 10
375.0
 20
1900.000001
 10
380.0
 20
1900.000001
 10
380.0
 20
1825.000001999999
 10
370.0
 20
1825.000001999999
  0
LINE
  5
2ABD
330
18
100
AcDbEntity
  8
KYU-JIS
  6
ByBlock
100
AcDbLine
 10
350.0
 20
2000.0
 30
0.0
 11
350.0
 21
1950.0
 31
0.0
  0
CIRCLE
  5
2AC0
330
18
100
AcDbEntity
  8
KYU-JIS
  6
ByBlock
100
AcDbCircle
 10
350.0
 20
1941.999969999999
 30
0.0
 40
8.0
  0
ATTDEF
  5
2AC1
330
18
100
AcDbEntity
  8
ZOKUSEI
  6
ByBlock
100
AcDbText
 10
2540.000001000001
 20
1530.000008963063
 30
0.0
 40
25.0
  1
1
 41
0.7
  7
M7
100
AcDbAttributeDefinition
  3
番号を入力してください
  2
2
 70
     0
  0
ATTDEF
  5
2AC2
330
18
100
AcDbEntity
  8
ZOKUSEI
  6
ByBlock
100
AcDbText
 10
2450.0
 20
1530.000000999999
 30
0.0
 40
25.0
  1
ELCB
 41
0.7
  7
M7
100
AcDbAttributeDefinition
  3

  2
MCCB
 70
     8
  0
LINE
  5
2AC3
330
18
100
AcDbEntity
  8
SIN-JIS
  6
ByBlock
100
AcDbLine
 10
2400.0
 20
1600.0
 30
0.0
 11
2400.0
 21
1540.0
 31
0.0
  0
LINE
  5
2AC4
330
18
100
AcDbEntity
  8
SIN-JIS
  6
ByBlock
100
AcDbLine
 10
2375.0
 20
1550.0
 30
0.0
 11
2400.0
 21
1470.000000999998
 31
0.0
  0
ATTDEF
  5
2AC5
330
18
100
AcDbEntity
  8
ZOKUSEI
100
AcDbText
 10
2489.999999
 20
1469.999993036935
 30
0.0
 40
25.0
  1
30AT
 41
0.7
  7
M7
100
AcDbAttributeDefinition
  3
定格電流を入力してください
  2
50AT
 70
     0
  0
ATTDEF
  5
2AC6
330
18
100
AcDbEntity
  8
ZOKUSEI
100
AcDbText
 10
2489.999999
 20
1499.999993036936
 30
0.0
 40
25.0
  1
50AF
 41
0.7
  7
M7
100
AcDbAttributeDefinition
  3
フレーム電流を入力してください
  2
50AF
 70
     0
  0
LINE
  5
2AC7
330
18
100
AcDbEntity
  8
SIN-JIS
  6
ByBlock
100
AcDbLine
 10
2400.0
 20
1470.000000999998
 30
0.0
 11
2400.0
 21
1400.000001999999
 31
0.0
  0
LINE
  5
2AC8
330
18
100
AcDbEntity
  8
SIN-JIS
  6
ByBlock
100
AcDbLine
 10
2392.000121999998
 20
1548.000031
 30
0.0
 11
2407.999878
 21
1531.99997
 31
0.0
  0
LINE
  5
2AC9
330
18
100
AcDbEntity
  8
SIN-JIS
  6
ByBlock
100
AcDbLine
 10
2392.000121999998
 20
1531.99997
 30
0.0
 11
2407.999878
 21
1548.000031
 31
0.0
  0
ATTDEF
  5
2ACA
330
18
100
AcDbEntity
  8
ZOKUSEI
100
AcDbText
 10
2449.999998000001
 20
1500.000001
 30
0.0
 40
25.0
  1
3P
 41
0.7
  7
M7
100
AcDbAttributeDefinition
  3
極数を入力してください
  2
3P
 70
     0
  0
ATTDEF
  5
2ACB
330
18
100
AcDbEntity
  8
ZOKUSEI
  6
ByBlock
100
AcDbText
 10
3140.000001000001
 20
1530.000008963063
 30
0.0
 40
25.0
  1
1
 41
0.7
  7
M7
100
AcDbAttributeDefinition
  3
番号を入力してください
  2
4
 70
     0
  0
ATTDEF
  5
2ACC
330
18
100
AcDbEntity
  8
ZOKUSEI
  6
ByBlock
100
AcDbText
 10
3050.0
 20
1530.000000999999
 30
0.0
 40
25.0
  1
ELCB
 41
0.7
  7
M7
100
AcDbAttributeDefinition
  3

  2
MCCB
 70
     8
  0
LINE
  5
2ACD
330
18
100
AcDbEntity
  8
SIN-JIS
  6
ByBlock
100
AcDbLine
 10
3000.0
 20
1600.0
 30
0.0
 11
3000.0
 21
1540.0
 31
0.0
  0
LINE
  5
2ACE
330
18
100
AcDbEntity
  8
SIN-JIS
  6
ByBlock
100
AcDbLine
 10
2975.0
 20
1550.0
 30
0.0
 11
3000.0
 21
1470.000000999998
 31
0.0
  0
ATTDEF
  5
2ACF
330
18
100
AcDbEntity
  8
ZOKUSEI
100
AcDbText
 10
3089.999998999998
 20
1469.999993036935
 30
0.0
 40
25.0
  1
30AT
 41
0.7
  7
M7
100
AcDbAttributeDefinition
  3
定格電流を入力してください
  2
15AT
 70
     0
  0
ATTDEF
  5
2AD0
330
18
100
AcDbEntity
  8
ZOKUSEI
100
AcDbText
 10
3089.999998999998
 20
1499.999993036936
 30
0.0
 40
25.0
  1
50AF
 41
0.7
  7
M7
100
AcDbAttributeDefinition
  3
フレーム電流を入力してください
  2
50AF
 70
     0
  0
LINE
  5
2AD1
330
18
100
AcDbEntity
  8
SIN-JIS
  6
ByBlock
100
AcDbLine
 10
3000.0
 20
1470.000000999998
 30
0.0
 11
3000.0
 21
1400.000001999999
 31
0.0
  0
LINE
  5
2AD2
330
18
100
AcDbEntity
  8
SIN-JIS
  6
ByBlock
100
AcDbLine
 10
2992.000121999998
 20
1548.000031
 30
0.0
 11
3007.999877999998
 21
1531.99997
 31
0.0
  0
LINE
  5
2AD3
330
18
100
AcDbEntity
  8
SIN-JIS
  6
ByBlock
100
AcDbLine
 10
2992.000121999998
 20
1531.99997
 30
0.0
 11
3007.999877999998
 21
1548.000031
 31
0.0
  0
ATTDEF
  5
2AD4
330
18
100
AcDbEntity
  8
ZOKUSEI
100
AcDbText
 10
3049.999998000001
 20
1500.000001
 30
0.0
 40
25.0
  1
3P
 41
0.7
  7
M7
100
AcDbAttributeDefinition
  3
極数を入力してください
  2
3P
 70
     0
  0
TEXT
  5
2ADC
330
18
100
AcDbEntity
  8
1
  6
Continuous
100
AcDbText
 10
2023.500006390001
 20
2175.00000125621
 30
0.0
 40
25.0
  1
（接地相あり）
 41
0.7
  7
M7
 72
     1
 11
2094.666673056667
 21
2187.50000125621
 31
0.0
100
AcDbText
 73
     2
  0
TEXT
  5
2ADD
330
18
100
AcDbEntity
  8
1
  6
Continuous
100
AcDbText
 10
1982.083339723334
 20
2225.00000125621
 30
0.0
 40
25.0
  1
3%%C3W 200V 50Hz
 41
0.7
  7
M7
 72
     1
 11
2094.666673056667
 21
2237.50000125621
 31
0.0
100
AcDbText
 73
     2
  0
TEXT
  5
2ADE
330
18
100
AcDbEntity
  8
1
  6
Continuous
100
AcDbText
 10
2013.583339723334
 20
2275.00000125621
 30
0.0
 40
25.0
  1
キュービクルより
 41
0.7
  7
M7
 72
     1
 11
2094.666673056667
 21
2287.50000125621
 31
0.0
100
AcDbText
 73
     2
  0
LINE
  5
2AE2
330
18
100
AcDbEntity
  8
1
  6
Continuous
100
AcDbLine
 10
674.9999979202166
 20
925.0000012420676
 30
0.0
 11
674.9999979202166
 21
900.0000012420677
 31
0.0
  0
LINE
  5
2AE5
330
18
100
AcDbEntity
  8
SIN-JIS
  6
HIDDEN
100
AcDbLine
 10
509.3749989202168
 20
1495.000000242067
 30
0.0
 11
609.3749979202166
 21
1495.000000242067
 31
0.0
  0
LINE
  5
2AE6
330
18
100
AcDbEntity
  8
SIN-JIS
  6
ByBlock
100
AcDbLine
 10
517.0001209202163
 20
1523.000030242068
 30
0.0
 11
532.9998769202164
 21
1506.999969242068
 31
0.0
  0
LINE
  5
2AE7
330
18
100
AcDbEntity
  8
SIN-JIS
  6
ByBlock
100
AcDbLine
 10
517.0001209202163
 20
1506.999969242068
 30
0.0
 11
532.9998769202164
 21
1523.000030242068
 31
0.0
  0
LINE
  5
2AE8
330
18
100
AcDbEntity
  8
1
  6
Continuous
100
AcDbLine
 10
575.0
 20
1650.0
 30
0.0
 11
525.0
 21
1625.0
 31
0.0
  0
LINE
  5
2AF3
330
18
100
AcDbEntity
  8
SIN-JIS
  6
ByBlock
100
AcDbLine
 10
524.9999989202168
 20
1445.000000242067
 30
0.0
 11
524.999994059217
 21
1249.999996551582
 31
0.0
  0
LINE
  5
2AF8
330
18
100
AcDbEntity
  8
SIN-JIS
  6
ByBlock
100
AcDbLine
 10
499.9999989202168
 20
1524.999999242067
 30
0.0
 11
524.9999989202168
 21
1445.000000242067
 31
0.0
  0
LINE
  5
2AF9
330
18
100
AcDbEntity
  8
SIN-JIS
  6
ByBlock
100
AcDbLine
 10
524.9999989202168
 20
1574.999999242067
 30
0.0
 11
524.9999989202168
 21
1514.999999242068
 31
0.0
  0
LINE
  5
2AFA
330
18
100
AcDbEntity
  8
1
  6
Continuous
100
AcDbLine
 10
525.0
 20
1625.0
 30
0.0
 11
525.0
 21
1575.0
 31
0.0
  0
LINE
  5
2AFB
330
18
100
AcDbEntity
  8
SIN-JIS
  6
ByBlock
100
AcDbLine
 10
624.9999979202166
 20
1445.000000242067
 30
0.0
 11
624.999994059217
 21
1249.999996551582
 31
0.0
  0
LINE
  5
2AFC
330
18
100
AcDbEntity
  8
SIN-JIS
  6
ByBlock
100
AcDbLine
 10
574.9999979202166
 20
1445.000000242067
 30
0.0
 11
574.9999979202166
 21
1350.000001242068
 31
0.0
  0
LINE
  5
2B1E
330
18
100
AcDbEntity
  8
SIN-JIS
  6
ByBlock
100
AcDbLine
 10
674.9999979202166
 20
1345.000000242068
 30
0.0
 11
674.999994059217
 21
1249.999996551582
 31
0.0
  0
ARC
  5
2B2B
330
18
100
AcDbEntity
  8
1
  6
Continuous
100
AcDbCircle
 10
624.9999979202166
 20
1350.000001242066
 30
0.0
 40
12.5
100
AcDbArc
 50
0.0
 51
180.0
  0
LINE
  5
2B2C
330
18
100
AcDbEntity
  8
1
  6
Continuous
100
AcDbLine
 10
574.9999979202166
 20
1350.000001242066
 30
0.0
 11
612.4999979202166
 21
1350.000001242066
 31
0.0
  0
LINE
  5
2B2D
330
18
100
AcDbEntity
  8
1
  6
Continuous
100
AcDbLine
 10
637.4999979202166
 20
1350.000001242066
 30
0.0
 11
674.9999979202166
 21
1350.000001242066
 31
0.0
  0
LINE
  5
2B2F
330
18
100
AcDbEntity
  8
1
  6
Continuous
100
AcDbLine
 10
575.0
 20
1650.0
 30
0.0
 11
625.0
 21
1625.0
 31
0.0
  0
LINE
  5
2B30
330
18
100
AcDbEntity
  8
1
  6
Continuous
100
AcDbLine
 10
575.0
 20
1650.0
 30
0.0
 11
575.0
 21
1575.0
 31
0.0
  0
LINE
  5
2B31
330
18
100
AcDbEntity
  8
SIN-JIS
  6
ByBlock
100
AcDbLine
 10
599.9999979202166
 20
1524.999999242067
 30
0.0
 11
624.9999979202166
 21
1445.000000242067
 31
0.0
  0
LINE
  5
2B32
330
18
100
AcDbEntity
  8
SIN-JIS
  6
ByBlock
100
AcDbLine
 10
549.9999989202168
 20
1524.999999242067
 30
0.0
 11
574.9999979202166
 21
1445.000000242067
 31
0.0
  0
LINE
  5
2B33
330
18
100
AcDbEntity
  8
SIN-JIS
  6
ByBlock
100
AcDbLine
 10
574.9999979202166
 20
1574.999999242067
 30
0.0
 11
574.9999979202166
 21
1514.999999242068
 31
0.0
  0
LINE
  5
2B34
330
18
100
AcDbEntity
  8
SIN-JIS
  6
ByBlock
100
AcDbLine
 10
567.000119920217
 20
1523.000030242068
 30
0.0
 11
582.9998759202162
 21
1506.999969242068
 31
0.0
  0
LINE
  5
2B35
330
18
100
AcDbEntity
  8
SIN-JIS
  6
ByBlock
100
AcDbLine
 10
567.000119920217
 20
1506.999969242068
 30
0.0
 11
582.9998759202162
 21
1523.000030242068
 31
0.0
  0
LINE
  5
2B36
330
18
100
AcDbEntity
  8
SIN-JIS
  6
ByBlock
100
AcDbLine
 10
624.9999979202166
 20
1574.999999242067
 30
0.0
 11
624.9999979202166
 21
1514.999999242068
 31
0.0
  0
LINE
  5
2B37
330
18
100
AcDbEntity
  8
SIN-JIS
  6
ByBlock
100
AcDbLine
 10
617.000119920217
 20
1523.000030242068
 30
0.0
 11
632.9998749202167
 21
1506.999969242068
 31
0.0
  0
LINE
  5
2B38
330
18
100
AcDbEntity
  8
SIN-JIS
  6
ByBlock
100
AcDbLine
 10
617.000119920217
 20
1506.999969242068
 30
0.0
 11
632.9998749202167
 21
1523.000030242068
 31
0.0
  0
LINE
  5
2B39
330
18
100
AcDbEntity
  8
1
  6
Continuous
100
AcDbLine
 10
625.0
 20
1625.0
 30
0.0
 11
625.0
 21
1575.0
 31
0.0
  0
LINE
  5
2B3A
330
18
100
AcDbEntity
  8
1
  6
Continuous
100
AcDbLine
 10
575.0
 20
1675.0
 30
0.0
 11
575.0
 21
1650.0
 31
0.0
  0
LINE
  5
2B3B
330
18
100
AcDbEntity
  8
1
  6
Continuous
100
AcDbLine
 10
575.0
 20
1675.0
 30
0.0
 11
575.0
 21
1900.0
 31
0.0
  0
TEXT
  5
2B3D
330
18
100
AcDbEntity
  8
1
  6
Continuous
100
AcDbText
 10
2469.333333333333
 20
344.9999939441221
 30
0.0
 40
40.0
  1
同系統負荷機器へ
 41
0.7
  7
M7
 72
     1
 11
2600.0
 21
364.9999939441221
 31
0.0
100
AcDbText
 73
     2
  0
LINE
  5
2B40
330
18
100
AcDbEntity
  8
1
  6
Continuous
100
AcDbLine
 10
625.0
 20
925.0
 30
0.0
 11
625.0000000000007
 21
750.0000000000003
 31
0.0
  0
LWPOLYLINE
  5
2B41
330
18
100
AcDbEntity
  8
1
  6
Continuous
100
AcDbPolyline
 90
        4
 70
     1
 43
0.0
 10
950.0
 20
699.9999976203088
 10
1050.0
 20
699.9999976203088
 10
1050.0
 20
649.9999976203088
 10
950.0
 20
649.9999976203088
  0
CIRCLE
  5
2B42
330
18
100
AcDbEntity
  8
1
  6
Continuous
100
AcDbCircle
 10
975.0
 20
674.9999976203088
 30
0.0
 40
10.0
  0
CIRCLE
  5
2B43
330
18
100
AcDbEntity
  8
1
  6
Continuous
100
AcDbCircle
 10
1025.0
 20
674.9999976203088
 30
0.0
 40
10.0
  0
LINE
  5
2B44
330
18
100
AcDbEntity
  8
1
  6
Continuous
100
AcDbLine
 10
1075.0
 20
900.0
 30
0.0
 11
675.0
 21
900.0
 31
0.0
  0
LWPOLYLINE
  5
2B45
330
18
100
AcDbEntity
  8
KUROMARU
  6
Continuous
100
AcDbPolyline
 90
        2
 70
     1
 43
5.0
 10
1072.5
 20
900.0
 42
1.0
 10
1077.5
 20
900.0
 42
1.0
  0
TEXT
  5
2B48
330
18
100
AcDbEntity
  8
WAKU-MOJI
  6
Continuous
100
AcDbText
 10
2712.733333333333
 20
91.0
 30
0.0
 40
40.0
  1
3φ3W接地相あり
 41
0.7
  7
M7
 72
     1
 11
2849.0
 21
111.0
 31
0.0
100
AcDbText
 73
     2
  0
LWPOLYLINE
  5
2B51
330
18
100
AcDbEntity
  8
KUROMARU
  6
Continuous
100
AcDbPolyline
 90
        2
 70
     1
 43
5.0
 10
972.4999999999999
 20
1900.0
 42
1.0
 10
977.5
 20
1900.0
 42
1.0
  0
LINE
  5
2B93
330
18
100
AcDbEntity
  8
1
  6
Continuous
100
AcDbLine
 10
596.8749925792362
 20
1178.124994668297
 30
0.0
 11
653.1249925792362
 21
1121.874994668296
 31
0.0
  0
LINE
  5
2B94
330
18
100
AcDbEntity
  8
1
  6
Continuous
100
AcDbLine
 10
641.8749925792362
 20
1121.874994668296
 30
0.0
 11
608.1249925792363
 21
1121.874994668296
 31
0.0
  0
LINE
  5
2B95
330
18
100
AcDbEntity
  8
1
  6
Continuous
100
AcDbLine
 10
608.1249925792363
 20
1178.124994668297
 30
0.0
 11
641.8749925792362
 21
1178.124994668297
 31
0.0
  0
LINE
  5
2B96
330
18
100
AcDbEntity
  8
1
  6
Continuous
100
AcDbLine
 10
624.999994059217
 20
999.9999965515835
 30
0.0
 11
674.999994059217
 21
999.9999965515835
 31
0.0
  0
LINE
  5
2B97
330
18
100
AcDbEntity
  8
1
  6
Continuous
100
AcDbLine
 10
624.999994059217
 20
1099.999996551582
 30
0.0
 11
674.999994059217
 21
1099.999996551582
 31
0.0
  0
INSERT
  5
2B98
330
18
100
AcDbEntity
  8
1
  6
Continuous
100
AcDbBlockReference
  2
TB-EU
 10
624.999994059217
 20
1224.999996551582
 30
0.0
  0
LINE
  5
2B99
330
18
100
AcDbEntity
  8
1
  6
Continuous
100
AcDbLine
 10
474.999994059217
 20
1224.999996551582
 30
0.0
 11
724.9999940592171
 21
1224.999996551582
 31
0.0
  0
INSERT
  5
2B9A
330
18
100
AcDbEntity
  8
1
  6
Continuous
100
AcDbBlockReference
  2
AM03
 10
624.999994059217
 20
949.9999965515835
 30
0.0
  0
CIRCLE
  5
2B9B
330
18
100
AcDbEntity
  8
1
  6
Continuous
100
AcDbCircle
 10
624.999994059217
 20
1099.999996551582
 30
0.0
 40
2.5
  0
LWPOLYLINE
  5
2B9C
330
18
100
AcDbEntity
  8
1
  6
Continuous
100
AcDbPolyline
 90
        4
 70
     0
 43
0.0
 10
614.9999940592168
 20
949.9999965515835
 10
474.999994059217
 20
949.9999965515835
 10
474.999994059217
 20
1224.999996551582
 10
474.999994059217
 20
1224.999996551582
  0
LINE
  5
2B9D
330
18
100
AcDbEntity
  8
1
  6
Continuous
100
AcDbLine
 10
624.999994059217
 20
959.9999965515834
 30
0.0
 11
624.999994059217
 21
999.9999965515835
 31
0.0
  0
LINE
  5
2B9E
330
18
100
AcDbEntity
  8
1
  6
Continuous
100
AcDbLine
 10
599.999994059217
 20
974.9999965515835
 30
0.0
 11
599.999994059217
 21
989.9999965515835
 31
0.0
  0
INSERT
  5
2B9F
330
18
100
AcDbEntity
  8
1
  6
Continuous
100
AcDbBlockReference
  2
AN07
 10
599.999994059217
 20
974.9999965515835
 30
0.0
 41
0.5
 42
0.5
 43
0.5
  0
INSERT
  5
2BA0
330
18
100
AcDbEntity
  8
1
  6
Continuous
100
AcDbBlockReference
  2
AL03
 10
574.999994059217
 20
1224.999996551582
 30
0.0
  0
INSERT
  5
2BA1
330
18
100
AcDbEntity
  8
1
  6
Continuous
100
AcDbBlockReference
  2
TB-EU
 10
524.999994059217
 20
1224.999996551582
 30
0.0
  0
LINE
  5
2BA2
330
18
100
AcDbEntity
  8
1
  6
Continuous
100
AcDbLine
 10
496.8749925792362
 20
1178.124994668297
 30
0.0
 11
553.1249925792362
 21
1121.874994668296
 31
0.0
  0
LINE
  5
2BA3
330
18
100
AcDbEntity
  8
1
  6
Continuous
100
AcDbLine
 10
624.999994059217
 20
1099.999996551582
 30
0.0
 11
524.999994059217
 21
1099.999996551582
 31
0.0
  0
LINE
  5
2BA4
330
18
100
AcDbEntity
  8
1
  6
Continuous
100
AcDbLine
 10
508.1249925792362
 20
1121.874994668296
 30
0.0
 11
508.1249925792362
 21
1178.124994668297
 31
0.0
  0
LINE
  5
2BA5
330
18
100
AcDbEntity
  8
1
  6
Continuous
100
AcDbLine
 10
541.8749925792362
 20
1178.124994668297
 30
0.0
 11
541.8749925792362
 21
1121.874994668296
 31
0.0
  0
LINE
  5
2BA6
330
18
100
AcDbEntity
  8
1
  6
Continuous
100
AcDbLine
 10
541.8749925792362
 20
1121.874994668296
 30
0.0
 11
508.1249925792362
 21
1121.874994668296
 31
0.0
  0
LINE
  5
2BA7
330
18
100
AcDbEntity
  8
1
  6
Continuous
100
AcDbLine
 10
524.999993072563
 20
1121.874994668296
 30
0.0
 11
524.999993072563
 21
1099.999995296059
 31
0.0
  0
LINE
  5
2BA8
330
18
100
AcDbEntity
  8
1
  6
Continuous
100
AcDbLine
 10
508.1249925792362
 20
1178.124994668297
 30
0.0
 11
541.8749925792362
 21
1178.124994668297
 31
0.0
  0
LINE
  5
2BA9
330
18
100
AcDbEntity
  8
1
  6
Continuous
100
AcDbLine
 10
524.999994059217
 20
1214.999996551582
 30
0.0
 11
524.9999925792362
 21
1178.124994668297
 31
0.0
  0
LINE
  5
2BAA
330
18
100
AcDbEntity
  8
1
  6
Continuous
100
AcDbLine
 10
608.1249925792363
 20
1121.874994668296
 30
0.0
 11
608.1249925792363
 21
1178.124994668297
 31
0.0
  0
LINE
  5
2BAB
330
18
100
AcDbEntity
  8
1
  6
Continuous
100
AcDbLine
 10
553.1249925792362
 20
1121.874994668296
 30
0.0
 11
553.1249925792362
 21
1110.624994668297
 31
0.0
  0
LINE
  5
2BAC
330
18
100
AcDbEntity
  8
1
  6
Continuous
100
AcDbLine
 10
624.999993072563
 20
1121.874994668296
 30
0.0
 11
624.999993072563
 21
1099.999995296059
 31
0.0
  0
LINE
  5
2BAD
330
18
100
AcDbEntity
  8
1
  6
Continuous
100
AcDbLine
 10
624.999994059217
 20
1214.999996551582
 30
0.0
 11
624.9999925792362
 21
1178.124994668297
 31
0.0
  0
LWPOLYLINE
  5
2BAE
330
18
100
AcDbEntity
  8
1
  6
Continuous
100
AcDbPolyline
 90
        2
 70
     0
 43
0.0
 10
534.9999940592168
 20
1224.999996551582
 10
564.9999940592168
 20
1224.999996551582
  0
TEXT
  5
2BAF
330
18
100
AcDbEntity
  8
1
  6
Continuous
100
AcDbText
 10
504.2906346423848
 20
1243.2781697946
 30
0.0
 40
25.0
  1
R
 41
0.7
  7
M7
 72
     1
 11
510.1239679757181
 21
1255.7781697946
 31
0.0
100
AcDbText
 73
     2
  0
LINE
  5
2BB0
330
18
100
AcDbEntity
  8
1
  6
Continuous
100
AcDbLine
 10
474.999994059217
 20
1224.999996551582
 30
0.0
 11
474.999994059217
 21
1224.999996551582
 31
0.0
  0
LINE
  5
2BB1
330
18
100
AcDbEntity
  8
1
  6
Continuous
100
AcDbLine
 10
524.999994059217
 20
1242.499996551583
 30
0.0
 11
524.999994059217
 21
1239.999996551582
 31
0.0
  0
LWPOLYLINE
  5
2BB2
330
18
100
AcDbEntity
  8
1
  6
Continuous
100
AcDbPolyline
 90
        2
 70
     0
 43
0.0
 10
584.9999940592168
 20
1224.999996551582
 10
614.9999940592168
 20
1224.999996551582
  0
TEXT
  5
2BB3
330
18
100
AcDbEntity
  8
1
  6
Continuous
100
AcDbText
 10
604.2906346423848
 20
1243.2781697946
 30
0.0
 40
25.0
  1
T
 41
0.7
  7
M7
 72
     1
 11
610.1239679757181
 21
1255.7781697946
 31
0.0
100
AcDbText
 73
     2
  0
LINE
  5
2BB4
330
18
100
AcDbEntity
  8
1
  6
Continuous
100
AcDbLine
 10
624.999994059217
 20
1249.999996551582
 30
0.0
 11
624.999994059217
 21
1239.999996551582
 31
0.0
  0
LINE
  5
2BB5
330
18
100
AcDbEntity
  8
1
  6
Continuous
100
AcDbLine
 10
674.9999934014478
 20
1062.499995714567
 30
0.0
 11
674.9999934014478
 21
1099.999995714566
 31
0.0
  0
CIRCLE
  5
2BB6
330
18
100
AcDbEntity
  8
1
  6
Continuous
100
AcDbCircle
 10
674.999994059217
 20
1099.999996551582
 30
0.0
 40
2.5
  0
LWPOLYLINE
  5
2BB7
330
18
100
AcDbEntity
  8
1
  6
Continuous
100
AcDbPolyline
 90
        4
 70
     0
 43
0.0
 10
684.9999940592168
 20
949.9999965515835
 10
724.9999940592171
 20
949.9999965515835
 10
724.9999940592171
 20
1224.999996551582
 10
724.9999940592171
 20
1224.999996551582
  0
LINE
  5
2BB8
330
18
100
AcDbEntity
  8
1
  6
Continuous
100
AcDbLine
 10
674.999994059217
 20
1024.999996551582
 30
0.0
 11
674.999994059217
 21
959.9999965515834
 31
0.0
  0
TEXT
  5
2BB9
330
18
100
AcDbEntity
  8
1
  6
Continuous
100
AcDbText
 10
635.4166607258836
 20
962.4999965515835
 30
0.0
 40
25.0
  1
PE
 41
0.7
  7
M7
 72
     1
 11
649.999994059217
 21
974.9999965515835
 31
0.0
100
AcDbText
 73
     2
  0
INSERT
  5
2BBA
330
18
100
AcDbEntity
  8
1
  6
Continuous
100
AcDbBlockReference
  2
TB-ED
 10
674.999994059217
 20
949.9999965515835
 30
0.0
  0
LINE
  5
2BBB
330
18
100
AcDbEntity
  8
1
  6
Continuous
100
AcDbLine
 10
674.999994059217
 20
924.9999965515835
 30
0.0
 11
674.999994059217
 21
899.9999965515835
 31
0.0
  0
LWPOLYLINE
  5
2BBC
330
18
100
AcDbEntity
  8
1
  6
Continuous
100
AcDbPolyline
 90
        2
 70
     0
 43
0.0
 10
664.9999940592168
 20
949.9999965515835
 10
634.9999940592168
 20
949.9999965515835
  0
HATCH
  5
2BBD
330
18
100
AcDbEntity
  8
1
  6
Continuous
100
AcDbHatch
 10
0.0
 20
0.0
 30
0.0
210
0.0
220
0.0
230
1.0
  2
ANSI31
 70
     0
 71
     1
 91
        1
 92
        7
 72
     1
 73
     1
 93
        2
 10
692.999993072563
 20
1042.499995296058
 42
1.0
 10
686.999993072563
 20
1042.499995296058
 42
1.0
 97
        1
330
2BBF
 75
     0
 76
     1
 52
0.0
 41
7.5
 77
     0
 78
     1
 53
45.0
 43
-622.5000069274368
 44
-195.0000047039407
 45
-0.6629126073623884
 46
0.6629126073623885
 79
     0
 47
1.081613949156752
 98
        1
 10
689.9999930725625
 20
1042.499995296058
  0
HATCH
  5
2BBE
330
18
100
AcDbEntity
  8
1
  6
Continuous
100
AcDbHatch
 10
0.0
 20
0.0
 30
0.0
210
0.0
220
0.0
230
1.0
  2
ANSI31
 70
     0
 71
     1
 91
        2
 92
        7
 72
     0
 73
     1
 93
        3
 10
674.999993072563
 20
1053.749995296059
 10
686.2499930725631
 20
1068.749995296059
 10
663.749993072563
 20
1068.749995296059
 97
        3
330
2BC6
330
2BC7
330
2BC8
 92
        7
 72
     0
 73
     1
 93
        3
 10
663.7499930725629
 20
1031.249995296059
 10
686.2499930725631
 20
1031.249995296059
 10
674.9999930725627
 20
1046.249995296059
 97
        3
330
2BC2
330
2BC3
330
2BC1
 75
     0
 76
     1
 52
0.0
 41
7.5
 77
     0
 78
     1
 53
45.0
 43
-675.000006927437
 44
18.74999529605928
 45
-0.6629126073623884
 46
0.6629126073623885
 79
     0
 47
0.7725813976425631
 98
        2
 10
674.9999930725627
 20
1061.249995296059
 10
674.9999930725627
 20
1038.749995296059
  0
CIRCLE
  5
2BBF
102
{ACAD_REACTORS
330
2BBD
102
}
330
18
100
AcDbEntity
  8
1
  6
Continuous
100
AcDbCircle
 10
689.999993072563
 20
1042.499995296058
 30
0.0
 40
3.0
  0
CIRCLE
  5
2BC0
330
18
100
AcDbEntity
  8
1
  6
Continuous
100
AcDbCircle
 10
674.999993072563
 20
1049.999995296059
 30
0.0
 40
30.0
  0
LINE
  5
2BC1
102
{ACAD_REACTORS
330
2BBE
102
}
330
18
100
AcDbEntity
  8
1
  6
Continuous
100
AcDbLine
 10
686.249993072563
 20
1031.249995296059
 30
0.0
 11
674.999993072563
 21
1046.249995296059
 31
0.0
  0
LINE
  5
2BC2
102
{ACAD_REACTORS
330
2BBE
102
}
330
18
100
AcDbEntity
  8
1
  6
Continuous
100
AcDbLine
 10
674.999993072563
 20
1046.249995296059
 30
0.0
 11
663.749993072563
 21
1031.249995296059
 31
0.0
  0
LINE
  5
2BC3
102
{ACAD_REACTORS
330
2BBE
102
}
330
18
100
AcDbEntity
  8
1
  6
Continuous
100
AcDbLine
 10
663.749993072563
 20
1031.249995296059
 30
0.0
 11
686.249993072563
 21
1031.249995296059
 31
0.0
  0
CIRCLE
  5
2BC4
330
18
100
AcDbEntity
  8
1
  6
Continuous
100
AcDbCircle
 10
674.9999953590712
 20
999.9999957145673
 30
0.0
 40
2.0
  0
LINE
  5
2BC5
330
18
100
AcDbEntity
  8
1
  6
Continuous
100
AcDbLine
 10
674.9999934014478
 20
1037.499995714566
 30
0.0
 11
674.9999934014478
 21
999.9999957145673
 31
0.0
  0
LINE
  5
2BC6
102
{ACAD_REACTORS
330
2BBE
102
}
330
18
100
AcDbEntity
  8
1
  6
Continuous
100
AcDbLine
 10
686.249993072563
 20
1068.749995296059
 30
0.0
 11
663.749993072563
 21
1068.749995296059
 31
0.0
  0
LINE
  5
2BC7
102
{ACAD_REACTORS
330
2BBE
102
}
330
18
100
AcDbEntity
  8
1
  6
Continuous
100
AcDbLine
 10
663.749993072563
 20
1068.749995296059
 30
0.0
 11
674.999993072563
 21
1053.749995296059
 31
0.0
  0
LINE
  5
2BC8
102
{ACAD_REACTORS
330
2BBE
102
}
330
18
100
AcDbEntity
  8
1
  6
Continuous
100
AcDbLine
 10
674.999993072563
 20
1053.749995296059
 30
0.0
 11
686.249993072563
 21
1068.749995296059
 31
0.0
  0
INSERT
  5
2BC9
330
18
100
AcDbEntity
  8
1
  6
Continuous
100
AcDbBlockReference
  2
TB-EU
 10
674.999994059217
 20
1224.999996551582
 30
0.0
  0
LINE
  5
2BCA
330
18
100
AcDbEntity
  8
1
  6
Continuous
100
AcDbLine
 10
641.8749925792362
 20
1178.124994668297
 30
0.0
 11
641.8749925792362
 21
1121.874994668296
 31
0.0
  0
LINE
  5
2BCB
330
18
100
AcDbEntity
  8
1
  6
Continuous
100
AcDbLine
 10
674.999994059217
 20
1099.999996551582
 30
0.0
 11
674.999994059217
 21
1214.999996551582
 31
0.0
  0
LINE
  5
2BCC
330
18
100
AcDbEntity
  8
1
  6
Continuous
100
AcDbLine
 10
653.1249925792362
 20
1121.874994668296
 30
0.0
 11
653.1249925792362
 21
1110.624994668297
 31
0.0
  0
TEXT
  5
2BCD
330
18
100
AcDbEntity
  8
1
  6
Continuous
100
AcDbText
 10
654.2906346423848
 20
1243.2781697946
 30
0.0
 40
25.0
  1
N
 41
0.7
  7
M7
 72
     1
 11
660.1239679757181
 21
1255.7781697946
 31
0.0
100
AcDbText
 73
     2
  0
LINE
  5
2BCE
330
18
100
AcDbEntity
  8
1
  6
Continuous
100
AcDbLine
 10
674.999994059217
 20
1249.999996551582
 30
0.0
 11
674.999994059217
 21
1239.999996551582
 31
0.0
  0
LINE
  5
2BCF
330
18
100
AcDbEntity
  8
1
  6
Continuous
100
AcDbLine
 10
724.9999940592171
 20
1224.999996551582
 30
0.0
 11
724.9999940592171
 21
1224.999996551582
 31
0.0
  0
LINE
  5
2BD0
330
18
100
AcDbEntity
  8
1
  6
Continuous
100
AcDbLine
 10
1074.999994059216
 20
1224.999996551582
 30
0.0
 11
1074.999994059216
 21
1339.999996551582
 31
0.0
  0
LWPOLYLINE
  5
2BD1
330
18
100
AcDbEntity
  8
1
  6
Continuous
100
AcDbPolyline
 90
        4
 70
     0
 43
0.0
 10
1084.999994059216
 20
1074.999996551582
 10
1124.999994059217
 20
1074.999996551582
 10
1124.999994059217
 20
1349.999996551582
 10
1124.999994059217
 20
1349.999996551582
  0
LINE
  5
2BD2
330
18
100
AcDbEntity
  8
1
  6
Continuous
100
AcDbLine
 10
1024.999994059217
 20
1339.999996551582
 30
0.0
 11
1024.999992579236
 21
1303.124994668297
 31
0.0
  0
LINE
  5
2BD3
330
18
100
AcDbEntity
  8
1
  6
Continuous
100
AcDbLine
 10
924.9999940592172
 20
1339.999996551582
 30
0.0
 11
924.9999925792362
 21
1303.124994668297
 31
0.0
  0
LWPOLYLINE
  5
2BD4
330
18
100
AcDbEntity
  8
1
  6
Continuous
100
AcDbPolyline
 90
        4
 70
     0
 43
0.0
 10
1014.999994059217
 20
1074.999996551582
 10
874.9999940592172
 20
1074.999996551582
 10
874.9999940592172
 20
1349.999996551582
 10
874.9999940592172
 20
1349.999996551582
  0
CIRCLE
  5
2BD5
330
18
100
AcDbEntity
  8
1
  6
Continuous
100
AcDbCircle
 10
1074.999993072563
 20
1174.999995296059
 30
0.0
 40
30.0
  0
LWPOLYLINE
  5
2BD6
330
18
100
AcDbEntity
  8
1
  6
Continuous
100
AcDbPolyline
 90
        2
 70
     0
 43
0.0
 10
1064.999994059217
 20
1074.999996551582
 10
1034.999994059216
 20
1074.999996551582
  0
TEXT
  5
2BD7
330
18
100
AcDbEntity
  8
1
  6
Continuous
100
AcDbText
 10
1035.416660725883
 20
1087.499996551582
 30
0.0
 40
25.0
  1
PE
 41
0.7
  7
M7
 72
     1
 11
1049.999994059217
 21
1099.999996551582
 31
0.0
100
AcDbText
 73
     2
  0
LINE
  5
2BD8
330
18
100
AcDbEntity
  8
1
  6
Continuous
100
AcDbLine
 10
1024.999994059217
 20
1224.999996551582
 30
0.0
 11
1074.999994059216
 21
1224.999996551582
 31
0.0
  0
LINE
  5
2BD9
330
18
100
AcDbEntity
  8
1
  6
Continuous
100
AcDbLine
 10
1024.999994059217
 20
1124.999996551582
 30
0.0
 11
1074.999994059216
 21
1124.999996551582
 31
0.0
  0
INSERT
  5
2BDA
330
18
100
AcDbEntity
  8
1
  6
Continuous
100
AcDbBlockReference
  2
AM03
 10
1024.999994059217
 20
1074.999996551582
 30
0.0
  0
INSERT
  5
2BDB
330
18
100
AcDbEntity
  8
1
  6
Continuous
100
AcDbBlockReference
  2
AN07
 10
999.9999940592172
 20
1099.999996551582
 30
0.0
 41
0.5
 42
0.5
 43
0.5
  0
LINE
  5
2BDC
330
18
100
AcDbEntity
  8
1
  6
Continuous
100
AcDbLine
 10
999.9999940592172
 20
1099.999996551582
 30
0.0
 11
999.9999940592172
 21
1114.999996551582
 31
0.0
  0
LINE
  5
2BDD
330
18
100
AcDbEntity
  8
1
  6
Continuous
100
AcDbLine
 10
1024.999994059217
 20
1084.999996551583
 30
0.0
 11
1024.999994059217
 21
1124.999996551582
 31
0.0
  0
LINE
  5
2BDE
330
18
100
AcDbEntity
  8
1
  6
Continuous
100
AcDbLine
 10
1024.999994059217
 20
1224.999996551582
 30
0.0
 11
924.9999940592172
 21
1224.999996551582
 31
0.0
  0
LINE
  5
2BDF
330
18
100
AcDbEntity
  8
1
  6
Continuous
100
AcDbLine
 10
941.8749925792365
 20
1303.124994668297
 30
0.0
 11
941.8749925792365
 21
1246.874994668297
 31
0.0
  0
LINE
  5
2BE0
330
18
100
AcDbEntity
  8
1
  6
Continuous
100
AcDbLine
 10
908.1249925792365
 20
1246.874994668297
 30
0.0
 11
908.1249925792365
 21
1303.124994668297
 31
0.0
  0
LINE
  5
2BE1
330
18
100
AcDbEntity
  8
1
  6
Continuous
100
AcDbLine
 10
896.8749925792362
 20
1303.124994668297
 30
0.0
 11
953.1249925792362
 21
1246.874994668297
 31
0.0
  0
LINE
  5
2BE2
330
18
100
AcDbEntity
  8
1
  6
Continuous
100
AcDbLine
 10
941.8749925792365
 20
1246.874994668297
 30
0.0
 11
908.1249925792365
 21
1246.874994668297
 31
0.0
  0
LINE
  5
2BE3
330
18
100
AcDbEntity
  8
1
  6
Continuous
100
AcDbLine
 10
924.999993072563
 20
1246.874994668297
 30
0.0
 11
924.999993072563
 21
1224.999995296059
 31
0.0
  0
LINE
  5
2BE4
330
18
100
AcDbEntity
  8
1
  6
Continuous
100
AcDbLine
 10
953.1249925792362
 20
1246.874994668297
 30
0.0
 11
953.1249925792362
 21
1235.624994668297
 31
0.0
  0
LINE
  5
2BE5
330
18
100
AcDbEntity
  8
1
  6
Continuous
100
AcDbLine
 10
908.1249925792365
 20
1303.124994668297
 30
0.0
 11
941.8749925792365
 21
1303.124994668297
 31
0.0
  0
LINE
  5
2BE6
330
18
100
AcDbEntity
  8
1
  6
Continuous
100
AcDbLine
 10
1041.874992579236
 20
1303.124994668297
 30
0.0
 11
1041.874992579236
 21
1246.874994668297
 31
0.0
  0
LINE
  5
2BE7
330
18
100
AcDbEntity
  8
1
  6
Continuous
100
AcDbLine
 10
1008.124992579235
 20
1246.874994668297
 30
0.0
 11
1008.124992579235
 21
1303.124994668297
 31
0.0
  0
LINE
  5
2BE8
330
18
100
AcDbEntity
  8
1
  6
Continuous
100
AcDbLine
 10
996.8749925792362
 20
1303.124994668297
 30
0.0
 11
1053.124992579236
 21
1246.874994668297
 31
0.0
  0
LINE
  5
2BE9
330
18
100
AcDbEntity
  8
1
  6
Continuous
100
AcDbLine
 10
1041.874992579236
 20
1246.874994668297
 30
0.0
 11
1008.124992579235
 21
1246.874994668297
 31
0.0
  0
LINE
  5
2BEA
330
18
100
AcDbEntity
  8
1
  6
Continuous
100
AcDbLine
 10
1053.124992579236
 20
1246.874994668297
 30
0.0
 11
1053.124992579236
 21
1235.624994668297
 31
0.0
  0
LINE
  5
2BEB
330
18
100
AcDbEntity
  8
1
  6
Continuous
100
AcDbLine
 10
1024.999993072563
 20
1246.874994668297
 30
0.0
 11
1024.999993072563
 21
1224.999995296059
 31
0.0
  0
CIRCLE
  5
2BEC
330
18
100
AcDbEntity
  8
1
  6
Continuous
100
AcDbCircle
 10
1024.999994059217
 20
1224.999996551582
 30
0.0
 40
2.5
  0
LINE
  5
2BED
330
18
100
AcDbEntity
  8
1
  6
Continuous
100
AcDbLine
 10
1008.124992579235
 20
1303.124994668297
 30
0.0
 11
1041.874992579236
 21
1303.124994668297
 31
0.0
  0
INSERT
  5
2BEE
330
18
100
AcDbEntity
  8
1
  6
Continuous
100
AcDbBlockReference
  2
TB-ED
 10
1074.999994059216
 20
1074.999996551582
 30
0.0
  0
LINE
  5
2BEF
330
18
100
AcDbEntity
  8
1
  6
Continuous
100
AcDbLine
 10
1074.999993401447
 20
1187.499995714567
 30
0.0
 11
1074.999993401447
 21
1224.999995714567
 31
0.0
  0
LINE
  5
2BF0
330
18
100
AcDbEntity
  8
1
  6
Continuous
100
AcDbLine
 10
1074.999993401447
 20
1162.499995714566
 30
0.0
 11
1074.999993401447
 21
1124.999995714567
 31
0.0
  0
LINE
  5
2BF1
330
18
100
AcDbEntity
  8
1
  6
Continuous
100
AcDbLine
 10
1074.999994059216
 20
1149.999996551582
 30
0.0
 11
1074.999994059216
 21
1084.999996551583
 31
0.0
  0
CIRCLE
  5
2BF2
330
18
100
AcDbEntity
  8
1
  6
Continuous
100
AcDbCircle
 10
1074.999995359071
 20
1124.999995714567
 30
0.0
 40
2.0
  0
LINE
  5
2BF3
102
{ACAD_REACTORS
330
2BFA
102
}
330
18
100
AcDbEntity
  8
1
  6
Continuous
100
AcDbLine
 10
1074.999993072563
 20
1178.749995296059
 30
0.0
 11
1086.249993072563
 21
1193.749995296059
 31
0.0
  0
LINE
  5
2BF4
102
{ACAD_REACTORS
330
2BFA
102
}
330
18
100
AcDbEntity
  8
1
  6
Continuous
100
AcDbLine
 10
1063.749993072563
 20
1193.749995296059
 30
0.0
 11
1074.999993072563
 21
1178.749995296059
 31
0.0
  0
LINE
  5
2BF5
102
{ACAD_REACTORS
330
2BFA
102
}
330
18
100
AcDbEntity
  8
1
  6
Continuous
100
AcDbLine
 10
1086.249993072563
 20
1193.749995296059
 30
0.0
 11
1063.749993072563
 21
1193.749995296059
 31
0.0
  0
LINE
  5
2BF6
102
{ACAD_REACTORS
330
2BFA
102
}
330
18
100
AcDbEntity
  8
1
  6
Continuous
100
AcDbLine
 10
1063.749993072563
 20
1156.249995296059
 30
0.0
 11
1086.249993072563
 21
1156.249995296059
 31
0.0
  0
LINE
  5
2BF7
102
{ACAD_REACTORS
330
2BFA
102
}
330
18
100
AcDbEntity
  8
1
  6
Continuous
100
AcDbLine
 10
1074.999993072563
 20
1171.249995296059
 30
0.0
 11
1063.749993072563
 21
1156.249995296059
 31
0.0
  0
LINE
  5
2BF8
102
{ACAD_REACTORS
330
2BFA
102
}
330
18
100
AcDbEntity
  8
1
  6
Continuous
100
AcDbLine
 10
1086.249993072563
 20
1156.249995296059
 30
0.0
 11
1074.999993072563
 21
1171.249995296059
 31
0.0
  0
CIRCLE
  5
2BF9
330
18
100
AcDbEntity
  8
1
  6
Continuous
100
AcDbCircle
 10
1089.999993072563
 20
1167.499995296058
 30
0.0
 40
3.0
  0
HATCH
  5
2BFA
330
18
100
AcDbEntity
  8
1
  6
Continuous
100
AcDbHatch
 10
0.0
 20
0.0
 30
0.0
210
0.0
220
0.0
230
1.0
  2
ANSI31
 70
     0
 71
     1
 91
        2
 92
        7
 72
     0
 73
     1
 93
        3
 10
1074.999993072561
 20
1178.749995296059
 10
1086.249993072563
 20
1193.749995296059
 10
1063.749993072563
 20
1193.749995296059
 97
        3
330
2BF5
330
2BF4
330
2BF3
 92
        7
 72
     0
 73
     1
 93
        3
 10
1063.749993072563
 20
1156.249995296059
 10
1086.249993072563
 20
1156.249995296059
 10
1074.999993072561
 20
1171.249995296059
 97
        3
330
2BF7
330
2BF6
330
2BF8
 75
     0
 76
     1
 52
0.0
 41
7.5
 77
     0
 78
     1
 53
45.0
 43
-275.0000069274369
 44
143.7499952960591
 45
-0.6629126073623884
 46
0.6629126073623885
 79
     0
 47
0.7725813976425631
 98
        2
 10
1074.999993072561
 20
1186.249995296059
 10
1074.999993072561
 20
1163.749995296059
  0
HATCH
  5
2BFB
330
18
100
AcDbEntity
  8
1
  6
Continuous
100
AcDbHatch
 10
0.0
 20
0.0
 30
0.0
210
0.0
220
0.0
230
1.0
  2
ANSI31
 70
     0
 71
     0
 91
        1
 92
        7
 72
     1
 73
     1
 93
        2
 10
1092.999993072563
 20
1167.499995296058
 42
1.0
 10
1086.999993072563
 20
1167.499995296058
 42
1.0
 97
        0
 75
     0
 76
     1
 52
0.0
 41
7.5
 77
     0
 78
     1
 53
45.0
 43
-222.5000069274368
 44
-70.0000047039407
 45
-0.6629126073623884
 46
0.6629126073623885
 79
     0
 47
1.081613949156752
 98
        1
 10
1089.999993072561
 20
1167.499995296058
  0
CIRCLE
  5
2BFC
330
18
100
AcDbEntity
  8
1
  6
Continuous
100
AcDbCircle
 10
1074.999994059216
 20
1224.999996551582
 30
0.0
 40
2.5
  0
LINE
  5
2BFD
330
18
100
AcDbEntity
  8
1
  6
Continuous
100
AcDbLine
 10
874.9999940592172
 20
1349.999996551582
 30
0.0
 11
1124.999994059217
 21
1349.999996551582
 31
0.0
  0
LINE
  5
2BFE
330
18
100
AcDbEntity
  8
1
  6
Continuous
100
AcDbLine
 10
874.9999940592172
 20
1349.999996551582
 30
0.0
 11
874.9999940592172
 21
1349.999996551582
 31
0.0
  0
INSERT
  5
2BFF
330
18
100
AcDbEntity
  8
1
  6
Continuous
100
AcDbBlockReference
  2
AL03
 10
974.9999940592172
 20
1349.999996551582
 30
0.0
  0
INSERT
  5
2C00
330
18
100
AcDbEntity
  8
1
  6
Continuous
100
AcDbBlockReference
  2
TB-EU
 10
924.9999940592172
 20
1349.999996551582
 30
0.0
  0
LINE
  5
2C01
330
18
100
AcDbEntity
  8
1
  6
Continuous
100
AcDbLine
 10
924.9999940592172
 20
1367.499996551583
 30
0.0
 11
924.9999940592172
 21
1364.999996551582
 31
0.0
  0
LWPOLYLINE
  5
2C02
330
18
100
AcDbEntity
  8
1
  6
Continuous
100
AcDbPolyline
 90
        2
 70
     0
 43
0.0
 10
934.9999940592168
 20
1349.999996551582
 10
964.999994059217
 20
1349.999996551582
  0
TEXT
  5
2C03
330
18
100
AcDbEntity
  8
1
  6
Continuous
100
AcDbText
 10
904.2906346423846
 20
1368.278169794601
 30
0.0
 40
25.0
  1
R
 41
0.7
  7
M7
 72
     1
 11
910.1239679757179
 21
1380.778169794601
 31
0.0
100
AcDbText
 73
     2
  0
LINE
  5
2C04
330
18
100
AcDbEntity
  8
1
  6
Continuous
100
AcDbLine
 10
1024.999994059217
 20
1374.999996551582
 30
0.0
 11
1024.999994059217
 21
1364.999996551582
 31
0.0
  0
INSERT
  5
2C05
330
18
100
AcDbEntity
  8
1
  6
Continuous
100
AcDbBlockReference
  2
TB-EU
 10
1024.999994059217
 20
1349.999996551582
 30
0.0
  0
LWPOLYLINE
  5
2C06
330
18
100
AcDbEntity
  8
1
  6
Continuous
100
AcDbPolyline
 90
        2
 70
     0
 43
0.0
 10
984.9999940592168
 20
1349.999996551582
 10
1014.999994059217
 20
1349.999996551582
  0
TEXT
  5
2C07
330
18
100
AcDbEntity
  8
1
  6
Continuous
100
AcDbText
 10
1004.290634642384
 20
1368.278169794601
 30
0.0
 40
25.0
  1
T
 41
0.7
  7
M7
 72
     1
 11
1010.123967975718
 21
1380.778169794601
 31
0.0
100
AcDbText
 73
     2
  0
LINE
  5
2C08
330
18
100
AcDbEntity
  8
1
  6
Continuous
100
AcDbLine
 10
1074.999994059216
 20
1374.999996551582
 30
0.0
 11
1074.999994059216
 21
1364.999996551582
 31
0.0
  0
INSERT
  5
2C09
330
18
100
AcDbEntity
  8
1
  6
Continuous
100
AcDbBlockReference
  2
TB-EU
 10
1074.999994059216
 20
1349.999996551582
 30
0.0
  0
LINE
  5
2C0A
330
18
100
AcDbEntity
  8
1
  6
Continuous
100
AcDbLine
 10
1124.999994059217
 20
1349.999996551582
 30
0.0
 11
1124.999994059217
 21
1349.999996551582
 31
0.0
  0
TEXT
  5
2C0B
330
18
100
AcDbEntity
  8
1
  6
Continuous
100
AcDbText
 10
1054.290634642384
 20
1368.278169794601
 30
0.0
 40
25.0
  1
N
 41
0.7
  7
M7
 72
     1
 11
1060.123967975717
 21
1380.778169794601
 31
0.0
100
AcDbText
 73
     2
  0
TEXT
  5
2C55
330
18
100
AcDbEntity
  8
1
  6
Continuous
100
AcDbText
 10
2399.999990626433
 20
2492.499996173562
 30
0.0
 40
40.0
  1
(感電保護を確保するため充電相と中性相間にSPD、中性相と接地間にギャップSPDを接続する)
 41
0.7
  7
M7
 11
2399.999990626433
 21
2512.499996173562
 31
0.0
100
AcDbText
 73
     2
  0
TEXT
  5
2C56
330
18
100
AcDbEntity
  8
1
  6
Continuous
100
AcDbText
 10
2399.999990626433
 20
2367.499996173562
 30
0.0
 40
40.0
  1
4.SPD回路の配線距離は極力短くすること。(推奨0.5m以下)
 41
0.7
  7
M7
 11
2399.999990626433
 21
2387.499996173562
 31
0.0
100
AcDbText
 73
     2
  0
TEXT
  5
2C57
330
18
100
AcDbEntity
  8
1
  6
Continuous
100
AcDbText
 10
2399.999990626433
 20
2542.499996173562
 30
0.0
 40
40.0
  1
2.JIS C 0364-5-534 TT系統におけるサージ保護装置の施設 図B.2による結線をすること。
 41
0.7
  7
M7
 11
2399.999990626433
 21
2562.499996173562
 31
0.0
100
AcDbText
 73
     2
  0
LWPOLYLINE
  5
2C58
330
18
100
AcDbEntity
  8
1
  6
Continuous
100
AcDbPolyline
 90
        4
 70
     1
 43
0.0
 10
2349.999990626434
 20
2749.999996173562
 10
3999.999990626434
 20
2749.999996173562
 10
3999.999990626434
 20
2249.999996173562
 10
2349.999990626434
 20
2249.999996173562
  0
TEXT
  5
2C59
330
18
100
AcDbEntity
  8
1
  6
Continuous
100
AcDbText
 10
2399.999990626433
 20
2654.999996173562
 30
0.0
 40
40.0
  1
1.各種接地が共通化されていない場合(MCCBとELCB用接地が別系統など)は各接地に対して
 41
0.7
  7
M7
 11
2399.999990626433
 21
2674.999996173562
 31
0.0
100
AcDbText
 73
     2
  0
TEXT
  5
2C5A
330
18
100
AcDbEntity
  8
1
  6
Continuous
100
AcDbText
 10
2399.999990626433
 20
2304.999996173562
 30
0.0
 40
40.0
  1
5.SPD回路はメインブレーカ一次側に設置すること。
 41
0.7
  7
M7
 11
2399.999990626433
 21
2324.999996173562
 31
0.0
100
AcDbText
 73
     2
  0
TEXT
  5
2C5B
330
18
100
AcDbEntity
  8
1
  6
Continuous
100
AcDbText
 10
2399.999990626433
 20
2429.999996173562
 30
0.0
 40
40.0
  1
3.SPD回路の配線太さは4sq以上とすること。
 41
0.7
  7
M7
 11
2399.999990626433
 21
2449.999996173562
 31
0.0
100
AcDbText
 73
     2
  0
TEXT
  5
2C5C
330
18
100
AcDbEntity
  8
1
  6
Continuous
100
AcDbText
 10
2424.999990626435
 20
2604.999996173562
 30
0.0
 40
40.0
  1
SPDを設置すること
 41
0.7
  7
M7
 11
2424.999990626435
 21
2624.999996173562
 31
0.0
100
AcDbText
 73
     2
  0
TEXT
  5
2C5D
330
18
100
AcDbEntity
  8
1
  6
Continuous
100
AcDbText
 10
2362.499990626433
 20
2767.499996173562
 30
0.0
 40
40.0
  1
注意事項
 41
0.7
  7
M7
 11
2362.499990626433
 21
2787.499996173562
 31
0.0
100
AcDbText
 73
     2
  0
TEXT
  5
2C5E
330
18
100
AcDbEntity
  8
1
  6
Continuous
100
AcDbText
 10
1074.999997920216
 20
1580.000001242066
 30
0.0
 40
40.0
  1
3P50AF50AT
 41
0.7
  7
M7
 11
1074.999997920216
 21
1600.000001242067
 31
0.0
100
AcDbText
 73
     2
  0
LINE
  5
2C7D
330
18
100
AcDbEntity
  8
1
  6
DOT
100
AcDbLine
 10
2100.0
 20
449.9999976203088
 30
0.0
 11
2100.0
 21
589.9999976203088
 31
0.0
  0
LINE
  5
2C7E
330
18
100
AcDbEntity
  8
1
  6
Continuous
 62
     3
100
AcDbLine
 10
2100.0
 20
459.9999957822156
 30
0.0
 11
2092.235428646924
 21
488.9777705708874
 31
0.0
  0
LINE
  5
2C7F
330
18
100
AcDbEntity
  8
1
  6
DOT
100
AcDbLine
 10
2400.0
 20
449.9999976203088
 30
0.0
 11
2400.0
 21
589.9999976203088
 31
0.0
  0
LINE
  5
2C80
330
18
100
AcDbEntity
  8
1
  6
DOT
100
AcDbLine
 10
2150.0
 20
449.9999976203088
 30
0.0
 11
2150.0
 21
589.9999976203088
 31
0.0
  0
LINE
  5
2C81
330
18
100
AcDbEntity
  8
1
  6
Continuous
 62
     3
100
AcDbLine
 10
2400.0
 20
459.9999957822156
 30
0.0
 11
2392.235428646924
 21
488.9777705708874
 31
0.0
  0
LINE
  5
2C82
330
18
100
AcDbEntity
  8
1
  6
Continuous
 62
     3
100
AcDbLine
 10
2150.0
 20
459.9999957822156
 30
0.0
 11
2142.235428646924
 21
488.9777705708874
 31
0.0
  0
LINE
  5
2C83
330
18
100
AcDbEntity
  8
1
  6
DOT
100
AcDbLine
 10
2700.0
 20
449.9999976203088
 30
0.0
 11
2700.0
 21
589.9999976203088
 31
0.0
  0
LINE
  5
2C84
330
18
100
AcDbEntity
  8
1
  6
DOT
100
AcDbLine
 10
2750.0
 20
449.9999976203088
 30
0.0
 11
2750.0
 21
589.9999976203088
 31
0.0
  0
LINE
  5
2C85
330
18
100
AcDbEntity
  8
1
  6
Continuous
 62
     3
100
AcDbLine
 10
2700.0
 20
459.9999957822156
 30
0.0
 11
2692.235428646924
 21
488.9777705708874
 31
0.0
  0
LINE
  5
2C86
330
18
100
AcDbEntity
  8
1
  6
Continuous
 62
     3
100
AcDbLine
 10
2750.0
 20
459.9999957822156
 30
0.0
 11
2742.235428646924
 21
488.9777705708874
 31
0.0
  0
LINE
  5
2C88
330
18
100
AcDbEntity
  8
1
  6
DOT
100
AcDbLine
 10
3000.0
 20
449.9999976203088
 30
0.0
 11
3000.0
 21
589.9999976203088
 31
0.0
  0
LINE
  5
2C89
330
18
100
AcDbEntity
  8
1
  6
Continuous
 62
     3
100
AcDbLine
 10
3000.0
 20
459.9999957822156
 30
0.0
 11
2992.235428646924
 21
488.9777705708874
 31
0.0
  0
LINE
  5
2C8B
330
18
100
AcDbEntity
  8
1
  6
Continuous
100
AcDbLine
 10
2075.0
 20
400.0
 30
0.0
 11
3075.0
 21
400.0
 31
0.0
  0
LINE
  5
2C8C
330
18
100
AcDbEntity
  8
1
  6
Continuous
100
AcDbLine
 10
1074.999997920216
 20
450.0000012420676
 30
0.0
 11
1074.999997920216
 21
900.0000012420677
 31
0.0
  0
TEXT
  5
2C8D
330
18
100
AcDbEntity
  8
1
  6
Continuous
100
AcDbText
 10
1000.572970599923
 20
328.7823164516111
 30
0.0
 40
40.0
  1
又は上位よりの接地線
 41
0.7
  7
M7
 72
     1
 11
1164.83963726659
 21
348.7823164516111
 31
0.0
100
AcDbText
 73
     2
  0
LINE
  5
2C8E
330
18
100
AcDbEntity
  8
1
  6
Continuous
 62
     3
100
AcDbLine
 10
1075.0
 20
490.0000042177843
 30
0.0
 11
1067.235428646924
 21
461.0222294291125
 31
0.0
  0
LINE
  5
2C8F
330
18
100
AcDbEntity
  8
1
  6
Continuous
370
     9
100
AcDbLine
 10
2075.0
 20
1950.0
 30
0.0
 11
1950.0
 21
2050.0
 31
0.0
  0
LINE
  5
2C90
330
18
100
AcDbEntity
  8
1
  6
Continuous
370
     9
100
AcDbLine
 10
1950.0
 20
2050.0
 30
0.0
 11
325.0
 21
2050.0
 31
0.0
  0
LINE
  5
2C91
330
18
100
AcDbEntity
  8
1
  6
Continuous
370
     9
100
AcDbLine
 10
325.0
 20
2050.0
 30
0.0
 11
325.0
 21
850.0
 31
0.0
  0
TEXT
  5
2C93
330
18
100
AcDbEntity
  8
1
  6
Continuous
100
AcDbText
 10
949.9999979202167
 20
2055.000001242067
 30
0.0
 40
40.0
  1
この間の線長は500ｍｍ以内とすること
 41
0.7
  7
M7
 11
949.9999979202167
 21
2075.000001242067
 31
0.0
100
AcDbText
 73
     2
  0
LINE
  5
2C96
330
18
100
AcDbEntity
  8
1
  6
Continuous
370
     9
100
AcDbLine
 10
625.0
 20
825.0
 30
0.0
 11
1737.5
 21
825.0
 31
0.0
  0
TEXT
  5
2C97
330
18
100
AcDbEntity
  8
1
  6
Continuous
100
AcDbText
 10
1212.499997920216
 20
842.5000012420676
 30
0.0
 40
40.0
  1
4sq以上（サイズは容量による)
 41
0.7
  7
M7
 11
1212.499997920216
 21
862.5000012420677
 31
0.0
100
AcDbText
 73
     2
  0
LINE
  5
2C98
330
18
100
AcDbEntity
  8
1
  6
Continuous
370
     9
100
AcDbLine
 10
625.0
 20
825.0
 30
0.0
 11
650.0
 21
837.5
 31
0.0
  0
LINE
  5
2C99
330
18
100
AcDbEntity
  8
1
  6
Continuous
370
     9
100
AcDbLine
 10
1025.0
 20
825.0
 30
0.0
 11
1050.0
 21
837.5
 31
0.0
  0
LINE
  5
2C9A
330
18
100
AcDbEntity
  8
1
  6
Continuous
370
     9
100
AcDbLine
 10
1075.0
 20
825.0
 30
0.0
 11
1100.0
 21
837.5
 31
0.0
  0
LINE
  5
2CA7
330
18
100
AcDbEntity
  8
1
  6
Continuous
370
     9
100
AcDbLine
 10
575.0
 20
1800.0
 30
0.0
 11
1350.0
 21
1800.0
 31
0.0
  0
LINE
  5
2CA8
330
18
100
AcDbEntity
  8
1
  6
Continuous
370
     9
100
AcDbLine
 10
575.0
 20
1800.0
 30
0.0
 11
600.0
 21
1812.5
 31
0.0
  0
TEXT
  5
2CA9
330
18
100
AcDbEntity
  8
1
  6
Continuous
100
AcDbText
 10
1162.499997920216
 20
1817.500001242066
 30
0.0
 40
40.0
  1
4sq以上
 41
0.7
  7
M7
 11
1162.499997920216
 21
1837.500001242067
 31
0.0
100
AcDbText
 73
     2
  0
LINE
  5
2CAA
330
18
100
AcDbEntity
  8
1
  6
Continuous
370
     9
100
AcDbLine
 10
975.0
 20
1800.0
 30
0.0
 11
1000.0
 21
1812.5
 31
0.0
  0
LINE
  5
2CAC
330
18
100
AcDbEntity
  8
1
  6
Continuous
100
AcDbLine
 10
575.0
 20
1900.0
 30
0.0
 11
2100.0
 21
1900.0
 31
0.0
  0
TEXT
  5
2CAD
330
18
100
AcDbEntity
  8
1
  6
Continuous
100
AcDbText
 10
2784.166666666666
 20
612.5
 30
0.0
 40
25.0
  1
UVWE3
 41
0.7
  7
M7
 72
     1
 11
2825.0
 21
625.0
 31
0.0
100
AcDbText
 73
     2
  0
TEXT
  5
2CAE
330
18
100
AcDbEntity
  8
1
  6
Continuous
100
AcDbText
 10
2430.416666666666
 20
612.5
 30
0.0
 40
25.0
  1
UVW2
 41
0.7
  7
M7
 72
     1
 11
2462.5
 21
625.0
 31
0.0
100
AcDbText
 73
     2
  0
TEXT
  5
2CAF
330
18
100
AcDbEntity
  8
1
  6
Continuous
100
AcDbText
 10
2185.624999999999
 20
612.5
 30
0.0
 40
25.0
  1
UVWE1
 41
0.7
  7
M7
 72
     1
 11
2225.0
 21
625.0
 31
0.0
100
AcDbText
 73
     2
  0
CIRCLE
  5
2CB0
330
18
100
AcDbEntity
  8
1
  6
Continuous
100
AcDbCircle
 10
525.0
 20
749.9999976203088
 30
0.0
 40
10.0
  0
CIRCLE
  5
2CB1
330
18
100
AcDbEntity
  8
1
  6
Continuous
100
AcDbCircle
 10
475.0
 20
749.9999976203088
 30
0.0
 40
10.0
  0
CIRCLE
  5
2CB2
330
18
100
AcDbEntity
  8
1
  6
Continuous
100
AcDbCircle
 10
425.0
 20
749.9999976203088
 30
0.0
 40
10.0
  0
LINE
  5
2CB3
330
18
100
AcDbEntity
  8
1
  6
Continuous
 62
     3
100
AcDbLine
 10
525.0
 20
622.4999957822157
 30
0.0
 11
517.2354286469243
 21
651.4777705708874
 31
0.0
  0
LINE
  5
2CB4
330
18
100
AcDbEntity
  8
1
  6
DOT
100
AcDbLine
 10
525.0
 20
612.4999976203088
 30
0.0
 11
525.0
 21
752.4999976203088
 31
0.0
  0
LINE
  5
2CB5
330
18
100
AcDbEntity
  8
1
  6
Continuous
370
     9
100
AcDbLine
 10
375.0
 20
800.0
 30
0.0
 11
325.0
 21
850.0
 31
0.0
  0
TEXT
  5
2CBE
330
18
100
AcDbEntity
  8
1
  6
Continuous
100
AcDbText
 10
219.6396372665903
 20
678.7823164516112
 30
0.0
 40
40.0
  1
負荷用アース
 41
0.7
  7
M7
 72
     1
 11
314.8396372665902
 21
698.7823164516112
 31
0.0
100
AcDbText
 73
     2
  0
TEXT
  5
2CBF
330
18
100
AcDbEntity
  8
1
  6
Continuous
100
AcDbText
 10
752.6396372665901
 20
603.7823164516112
 30
0.0
 40
40.0
  1
ELB負荷用アース
 41
0.7
  7
M7
 72
     1
 11
889.8396372665901
 21
623.7823164516112
 31
0.0
100
AcDbText
 73
     2
  0
TEXT
  5
2CC1
330
18
100
AcDbEntity
  8
1
  6
Continuous
100
AcDbText
 10
394.3333333333333
 20
519.9999939441221
 30
0.0
 40
40.0
  1
同系統負荷機器へ
 41
0.7
  7
M7
 72
     1
 11
525.0
 21
539.9999939441221
 31
0.0
100
AcDbText
 73
     2
  0
LINE
  5
2CC2
330
18
100
AcDbEntity
  8
1
  6
Continuous
100
AcDbLine
 10
375.0
 20
575.0
 30
0.0
 11
675.0
 21
575.0
 31
0.0
  0
TEXT
  5
2CEC
330
18
100
AcDbEntity
  8
WAKU-MOJI
  6
Continuous
100
AcDbText
 10
3674.166668397083
 20
224.9999997740077
 30
0.0
 40
40.0
  1
直撃雷対策ケース1
 41
0.7
  7
M7
 72
     1
 11
3815.566668397083
 21
244.9999997740078
 31
0.0
100
AcDbText
 73
     2
  0
TEXT
  5
2CED
330
18
100
AcDbEntity
  8
WAKU-MOJI
  6
Continuous
100
AcDbText
 10
3662.500001730416
 20
174.9999997740077
 30
0.0
 40
40.0
  1
(トランス系統対応)
 41
0.7
  7
M7
 72
     1
 11
3815.566668397083
 21
194.9999997740077
 31
0.0
100
AcDbText
 73
     2
  0
TEXT
  5
2CFC
330
18
100
AcDbEntity
  8
1
  6
Continuous
100
AcDbText
 10
1074.999997920216
 20
1530.000001242067
 30
0.0
 40
40.0
  1
(設置点の遮断容量を満たすこと）
 41
0.7
  7
M7
 11
1074.999997920216
 21
1550.000001242066
 31
0.0
100
AcDbText
 73
     2
  0
ENDSEC
  0
SECTION
  2
OBJECTS
  0
DICTIONARY
  5
C
330
0
100
AcDbDictionary
281
     1
  3
ACAD_GROUP
350
D
  3
ACAD_LAYOUT
350
2548
  3
ACAD_MLINESTYLE
350
E
  3
ACAD_PLOTSETTINGS
350
2549
  3
ACAD_PLOTSTYLENAME
350
2546
  3
AcDbVariableDictionary
350
25DC
  0
DICTIONARY
  5
201C
330
2004
100
AcDbDictionary
280
     1
281
     1
  0
DICTIONARY
  5
D
102
{ACAD_REACTORS
330
C
102
}
330
C
100
AcDbDictionary
281
     1
  0
DICTIONARY
  5
2548
102
{ACAD_REACTORS
330
C
102
}
330
C
100
AcDbDictionary
281
     1
  3
Model
350
254A
  3
ﾚｲｱｳﾄ1
350
254B
  0
DICTIONARY
  5
E
102
{ACAD_REACTORS
330
C
102
}
330
C
100
AcDbDictionary
281
     1
  3
STANDARD
350
1B
  0
DICTIONARY
  5
2549
102
{ACAD_REACTORS
330
C
102
}
330
C
100
AcDbDictionary
281
     1
  0
ACDBDICTIONARYWDFLT
  5
2546
102
{ACAD_REACTORS
330
C
102
}
330
C
100
AcDbDictionary
281
     1
  3
Normal
350
2547
100
AcDbDictionaryWithDefault
340
2547
  0
DICTIONARY
  5
25DC
102
{ACAD_REACTORS
330
C
102
}
330
C
100
AcDbDictionary
281
     1
  3
DIMASSOC
350
25DD
  0
LAYOUT
  5
254A
102
{ACAD_REACTORS
330
2548
102
}
330
2548
100
AcDbPlotSettings
  1

  2
\\PC-1\RICOH imagio Neo 601
  4
A4
  6

 40
5.831416606903076
 41
4.942422866821289
 42
7.609405517578125
 43
5.789093017578125
 44
209.9733276367186
 45
296.9683227539062
 46
0.0
 47
0.0
 48
0.0
 49
0.0
140
0.0
141
0.0
142
1.0
143
15.11200395201325
 70
 11952
 72
     1
 73
     1
 74
     2
  7
monochrome.ctb
 75
     0
147
0.0661725607785312
148
0.0
149
0.0
100
AcDbLayout
  1
Model
 70
     1
 71
     0
 10
0.0
 20
0.0
 11
12.0
 21
9.0
 12
0.0
 22
0.0
 32
0.0
 14
0.0
 24
0.0
 34
0.0
 15
0.0
 25
0.0
 35
0.0
146
0.0
 13
0.0
 23
0.0
 33
0.0
 16
1.0
 26
0.0
 36
0.0
 17
0.0
 27
1.0
 37
0.0
 76
     0
330
18
  0
LAYOUT
  5
254B
102
{ACAD_REACTORS
330
2548
102
}
330
2548
100
AcDbPlotSettings
  1

  2
\\SEKKEI-SERVER1\CAD-A4[2]
  4

  6

 40
0.0
 41
0.0
 42
0.0
 43
0.0
 44
0.0
 45
0.0
 46
0.0
 47
0.0
 48
0.0
 49
0.0
140
0.0
141
0.0
142
1.0
143
1.0
 70
   688
 72
     0
 73
     0
 74
     5
  7
monochrome.ctb
 75
    16
147
1.0
148
0.0
149
0.0
100
AcDbLayout
  1
ﾚｲｱｳﾄ1
 70
     0
 71
     1
 10
0.0
 20
0.0
 11
12.0
 21
9.0
 12
0.0
 22
0.0
 32
0.0
 14
1.000000000000000E+20
 24
1.000000000000000E+20
 34
1.000000000000000E+20
 15
-1.000000000000000E+20
 25
-1.000000000000000E+20
 35
-1.000000000000000E+20
146
0.0
 13
0.0
 23
0.0
 33
0.0
 16
1.0
 26
0.0
 36
0.0
 17
0.0
 27
1.0
 37
0.0
 76
     0
330
15
  0
MLINESTYLE
  5
1B
102
{ACAD_REACTORS
330
E
102
}
330
E
100
AcDbMlineStyle
  2
STANDARD
 70
     0
  3

 62
     0
 51
90.0
 52
90.0
 71
     2
 49
0.5
 62
   256
  6
BYLAYER
 49
-0.5
 62
   256
  6
BYLAYER
  0
ACDBPLACEHOLDER
  5
2547
102
{ACAD_REACTORS
330
2546
102
}
330
2546
  0
DICTIONARYVAR
  5
25DD
102
{ACAD_REACTORS
330
25DC
102
}
330
25DC
100
DictionaryVariables
280
     0
  1
1
  0
ENDSEC
  0
EOF
