  0
SECTION
  2
HEADER
  9
$ACADVER
  1
AC1015
  9
$ACADMAINTVER
 70
    10
  9
$DWGCODEPAGE
  3
ANSI_932
  9
$INSBASE
 10
0.0
 20
0.0
 30
0.0
  9
$EXTMIN
 10
119.3939308163171
 20
49.7598336331539
 30
-0.000000000000013
  9
$EXTMAX
 10
4050.16480452633
 20
2860.419623486719
 30
0.0000000000000023
  9
$LIMMIN
 10
0.0
 20
0.0
  9
$LIMMAX
 10
4200.0
 20
2970.0
  9
$ORTHOMODE
 70
     0
  9
$REGENMODE
 70
     1
  9
$FILLMODE
 70
     1
  9
$QTEXTMODE
 70
     0
  9
$MIRRTEXT
 70
     0
  9
$LTSCALE
 40
10.0
  9
$ATTMODE
 70
     1
  9
$TEXTSIZE
 40
25.0
  9
$TRACEWID
 40
0.05
  9
$TEXTSTYLE
  7
ｽﾀｲﾙ1
  9
$CLAYER
  8
1
  9
$CELTYPE
  6
CONTINUOUS
  9
$CECOLOR
 62
   256
  9
$CELTSCALE
 40
1.0
  9
$DISPSILH
 70
     0
  9
$DIMSCALE
 40
10.0
  9
$DIMASZ
 40
0.8
  9
$DIMEXO
 40
1.0
  9
$DIMDLI
 40
5.0
  9
$DIMRND
 40
0.0
  9
$DIMDLE
 40
0.0
  9
$DIMEXE
 40
1.5
  9
$DIMTP
 40
0.0
  9
$DIMTM
 40
0.0
  9
$DIMTXT
 40
2.5
  9
$DIMCEN
 40
1.0
  9
$DIMTSZ
 40
0.0
  9
$DIMTOL
 70
     0
  9
$DIMLIM
 70
     0
  9
$DIMTIH
 70
     0
  9
$DIMTOH
 70
     0
  9
$DIMSE1
 70
     0
  9
$DIMSE2
 70
     0
  9
$DIMTAD
 70
     1
  9
$DIMZIN
 70
     0
  9
$DIMBLK
  1
UPARO1
  9
$DIMASO
 70
     1
  9
$DIMSHO
 70
     0
  9
$DIMPOST
  1

  9
$DIMAPOST
  1

  9
$DIMALT
 70
     0
  9
$DIMALTD
 70
     2
  9
$DIMALTF
 40
25.4
  9
$DIMLFAC
 40
1.0
  9
$DIMTOFL
 70
     1
  9
$DIMTVP
 40
0.0
  9
$DIMTIX
 70
     0
  9
$DIMSOXD
 70
     0
  9
$DIMSAH
 70
     0
  9
$DIMBLK1
  1

  9
$DIMBLK2
  1

  9
$DIMSTYLE
  2
STANDARD
  9
$DIMCLRD
 70
     1
  9
$DIMCLRE
 70
     1
  9
$DIMCLRT
 70
     1
  9
$DIMTFAC
 40
0.8571428571428571
  9
$DIMGAP
 40
1.0
  9
$DIMJUST
 70
     0
  9
$DIMSD1
 70
     0
  9
$DIMSD2
 70
     0
  9
$DIMTOLJ
 70
     1
  9
$DIMTZIN
 70
     0
  9
$DIMALTZ
 70
     0
  9
$DIMALTTZ
 70
     0
  9
$DIMUPT
 70
     0
  9
$DIMDEC
 70
     0
  9
$DIMTDEC
 70
     0
  9
$DIMALTU
 70
     2
  9
$DIMALTTD
 70
     2
  9
$DIMTXSTY
  7
STANDARD
  9
$DIMAUNIT
 70
     0
  9
$DIMADEC
 70
     0
  9
$DIMALTRND
 40
0.0
  9
$DIMAZIN
 70
     0
  9
$DIMDSEP
 70
    46
  9
$DIMATFIT
 70
     3
  9
$DIMFRAC
 70
     0
  9
$DIMLDRBLK
  1
UPARO1
  9
$DIMLUNIT
 70
     2
  9
$DIMLWD
 70
    -2
  9
$DIMLWE
 70
    -2
  9
$DIMTMOVE
 70
     0
  9
$LUNITS
 70
     2
  9
$LUPREC
 70
     2
  9
$SKETCHINC
 40
0.1
  9
$FILLETRAD
 40
0.0
  9
$AUNITS
 70
     0
  9
$AUPREC
 70
     0
  9
$MENU
  1
A:\R13\WIN\ACAD
  9
$ELEVATION
 40
0.0
  9
$PELEVATION
 40
0.0
  9
$THICKNESS
 40
0.0
  9
$LIMCHECK
 70
     0
  9
$CHAMFERA
 40
0.0
  9
$CHAMFERB
 40
0.0
  9
$CHAMFERC
 40
0.0
  9
$CHAMFERD
 40
0.0
  9
$SKPOLY
 70
     0
  9
$TDCREATE
 40
2451820.696849537
  9
$TDUCREATE
 40
2451820.321849537
  9
$TDUPDATE
 40
2455363.619986064
  9
$TDUUPDATE
 40
2455363.244986064
  9
$TDINDWG
 40
2.5768379282
  9
$TDUSRTIMER
 40
2.5768338773
  9
$USRTIMER
 70
     1
  9
$ANGBASE
 50
0.0
  9
$ANGDIR
 70
     0
  9
$PDMODE
 70
    34
  9
$PDSIZE
 40
10.0
  9
$PLINEWID
 40
0.0
  9
$SPLFRAME
 70
     0
  9
$SPLINETYPE
 70
     6
  9
$SPLINESEGS
 70
     8
  9
$HANDSEED
  5
41A1
  9
$SURFTAB1
 70
     6
  9
$SURFTAB2
 70
     6
  9
$SURFTYPE
 70
     6
  9
$SURFU
 70
     6
  9
$SURFV
 70
     6
  9
$UCSBASE
  2

  9
$UCSNAME
  2

  9
$UCSORG
 10
0.0
 20
0.0
 30
0.0
  9
$UCSXDIR
 10
1.0
 20
0.0
 30
0.0
  9
$UCSYDIR
 10
0.0
 20
1.0
 30
0.0
  9
$UCSORTHOREF
  2

  9
$UCSORTHOVIEW
 70
     0
  9
$UCSORGTOP
 10
0.0
 20
0.0
 30
0.0
  9
$UCSORGBOTTOM
 10
0.0
 20
0.0
 30
0.0
  9
$UCSORGLEFT
 10
0.0
 20
0.0
 30
0.0
  9
$UCSORGRIGHT
 10
0.0
 20
0.0
 30
0.0
  9
$UCSORGFRONT
 10
0.0
 20
0.0
 30
0.0
  9
$UCSORGBACK
 10
0.0
 20
0.0
 30
0.0
  9
$PUCSBASE
  2

  9
$PUCSNAME
  2

  9
$PUCSORG
 10
0.0
 20
0.0
 30
0.0
  9
$PUCSXDIR
 10
1.0
 20
0.0
 30
0.0
  9
$PUCSYDIR
 10
0.0
 20
1.0
 30
0.0
  9
$PUCSORTHOREF
  2

  9
$PUCSORTHOVIEW
 70
     0
  9
$PUCSORGTOP
 10
0.0
 20
0.0
 30
0.0
  9
$PUCSORGBOTTOM
 10
0.0
 20
0.0
 30
0.0
  9
$PUCSORGLEFT
 10
0.0
 20
0.0
 30
0.0
  9
$PUCSORGRIGHT
 10
0.0
 20
0.0
 30
0.0
  9
$PUCSORGFRONT
 10
0.0
 20
0.0
 30
0.0
  9
$PUCSORGBACK
 10
0.0
 20
0.0
 30
0.0
  9
$USERI1
 70
     0
  9
$USERI2
 70
     0
  9
$USERI3
 70
     0
  9
$USERI4
 70
     0
  9
$USERI5
 70
     0
  9
$USERR1
 40
0.0
  9
$USERR2
 40
0.0
  9
$USERR3
 40
0.0
  9
$USERR4
 40
0.0
  9
$USERR5
 40
0.0
  9
$WORLDVIEW
 70
     1
  9
$SHADEDGE
 70
     3
  9
$SHADEDIF
 70
    70
  9
$TILEMODE
 70
     1
  9
$MAXACTVP
 70
    16
  9
$PINSBASE
 10
0.0
 20
0.0
 30
0.0
  9
$PLIMCHECK
 70
     0
  9
$PEXTMIN
 10
1.000000000000000E+20
 20
1.000000000000000E+20
 30
1.000000000000000E+20
  9
$PEXTMAX
 10
-1.000000000000000E+20
 20
-1.000000000000000E+20
 30
-1.000000000000000E+20
  9
$PLIMMIN
 10
0.0
 20
0.0
  9
$PLIMMAX
 10
12.0
 20
9.0
  9
$UNITMODE
 70
     0
  9
$VISRETAIN
 70
     0
  9
$PLINEGEN
 70
     0
  9
$PSLTSCALE
 70
     0
  9
$TREEDEPTH
 70
  3020
  9
$CMLSTYLE
  2
STANDARD
  9
$CMLJUST
 70
     0
  9
$CMLSCALE
 40
1.0
  9
$PROXYGRAPHICS
 70
     1
  9
$MEASUREMENT
 70
     0
  9
$CELWEIGHT
370
    -1
  9
$ENDCAPS
280
     0
  9
$JOINSTYLE
280
     0
  9
$LWDISPLAY
290
     0
  9
$INSUNITS
 70
     0
  9
$HYPERLINKBASE
  1

  9
$STYLESHEET
  1
monochrome.ctb
  9
$XEDIT
290
     1
  9
$CEPSNTYPE
380
     0
  9
$PSTYLEMODE
290
     1
  9
$FINGERPRINTGUID
  2
{BDDB1B3D-4E7B-4B93-9093-54C3227FB7F9}
  9
$VERSIONGUID
  2
{C23AFB93-C200-41C7-BC41-44CDFE20531E}
  9
$EXTNAMES
290
     1
  9
$PSVPSCALE
 40
0.0
  9
$OLESTARTUP
290
     0
  0
ENDSEC
  0
SECTION
  2
CLASSES
  0
CLASS
  1
IDBUFFER
  2
AcDbIdBuffer
  3
AutoCAD 2000
 90
    32768
280
     0
281
     0
  0
CLASS
  1
LWPOLYLINE
  2
AcDbPolyline
  3
AutoCAD 2000
 90
    32768
280
     0
281
     1
  0
CLASS
  1
ACDBDICTIONARYWDFLT
  2
AcDbDictionaryWithDefault
  3
AutoCAD 2000
 90
        0
280
     0
281
     0
  0
CLASS
  1
ACDBPLACEHOLDER
  2
AcDbPlaceHolder
  3
AutoCAD 2000
 90
        0
280
     0
281
     0
  0
CLASS
  1
LAYOUT
  2
AcDbLayout
  3
AutoCAD 2000
 90
        0
280
     0
281
     0
  0
CLASS
  1
DICTIONARYVAR
  2
AcDbDictionaryVar
  3
AutoCAD 2000
 90
        0
280
     0
281
     0
  0
ENDSEC
  0
SECTION
  2
TABLES
  0
TABLE
  2
VPORT
  5
8
330
0
100
AcDbSymbolTable
 70
     3
  0
VPORT
  5
41A0
330
8
100
AcDbSymbolTableRecord
100
AcDbViewportTableRecord
  2
*Active
 70
     0
 10
0.0
 20
0.0
 11
1.0
 21
1.0
 12
2563.32779342006
 22
1497.332619557545
 13
0.0
 23
0.0
 14
12.5
 24
12.5
 15
50.0
 25
50.0
 16
0.0
 26
0.0
 36
1.0
 17
0.0
 27
0.0
 37
0.0
 40
3063.431699258385
 41
1.724358974358974
 42
50.0
 43
0.0
 44
0.0
 50
0.0
 51
0.0
 71
     0
 72
   500
 73
     1
 74
     0
 75
     1
 76
     1
 77
     0
 78
     0
281
     0
 65
     1
110
0.0
120
0.0
130
0.0
111
1.0
121
0.0
131
0.0
112
0.0
122
1.0
132
0.0
 79
     0
146
0.0
  0
ENDTAB
  0
TABLE
  2
LTYPE
  5
5
330
0
100
AcDbSymbolTable
 70
     9
  0
LTYPE
  5
12
330
5
100
AcDbSymbolTableRecord
100
AcDbLinetypeTableRecord
  2
BYBLOCK
 70
     0
  3

 72
    65
 73
     0
 40
0.0
  0
LTYPE
  5
13
330
5
100
AcDbSymbolTableRecord
100
AcDbLinetypeTableRecord
  2
BYLAYER
 70
     0
  3

 72
    65
 73
     0
 40
0.0
  0
LTYPE
  5
14
330
5
100
AcDbSymbolTableRecord
100
AcDbLinetypeTableRecord
  2
CONTINUOUS
 70
     0
  3
Solid line
 72
    65
 73
     0
 40
0.0
  0
LTYPE
  5
2A
330
5
100
AcDbSymbolTableRecord
100
AcDbLinetypeTableRecord
  2
DASHED
 70
     0
  3
___  ___  ___  ___  ___  ___  ___  ___
 72
    65
 73
     2
 40
5.0
 49
3.0
 74
     0
 49
-2.0
 74
     0
  0
LTYPE
  5
2B
330
5
100
AcDbSymbolTableRecord
100
AcDbLinetypeTableRecord
  2
HIDDEN
 70
     0
  3
__  __  __  __  __  __  __  __  __  __
 72
    65
 73
     2
 40
2.0
 49
1.0
 74
     0
 49
-1.0
 74
     0
  0
LTYPE
  5
2C
330
5
100
AcDbSymbolTableRecord
100
AcDbLinetypeTableRecord
  2
CENTER
 70
     0
  3
_____ _ _____ _ _____ _ _____ _ _____ _ _____
 72
    65
 73
     4
 40
17.0
 49
14.0
 74
     0
 49
-1.0
 74
     0
 49
1.0
 74
     0
 49
-1.0
 74
     0
  0
LTYPE
  5
2D
330
5
100
AcDbSymbolTableRecord
100
AcDbLinetypeTableRecord
  2
PHANTOM
 70
     0
  3
_____ _ _ _____ _ _ _____ _ _ _____ _ _ _____
 72
    65
 73
     6
 40
19.0
 49
14.0
 74
     0
 49
-1.0
 74
     0
 49
1.0
 74
     0
 49
-1.0
 74
     0
 49
1.0
 74
     0
 49
-1.0
 74
     0
  0
LTYPE
  5
2E
330
5
100
AcDbSymbolTableRecord
100
AcDbLinetypeTableRecord
  2
DOT
 70
     0
  3
_ _ _ _ _ _ _ _ _ _ _ _ _ _ _ _ _ _ _ _ _ _ 
 72
    65
 73
     2
 40
1.0
 49
0.5
 74
     0
 49
-0.5
 74
     0
  0
LTYPE
  5
2F
330
5
100
AcDbSymbolTableRecord
100
AcDbLinetypeTableRecord
  2
DASHDOT
 70
     0
  3
__ . __ . __ . __ . __ . __ . __ . __ . __ . __
 72
    65
 73
     4
 40
8.0
 49
5.0
 74
     0
 49
-1.0
 74
     0
 49
1.0
 74
     0
 49
-1.0
 74
     0
  0
LTYPE
  5
30
330
5
100
AcDbSymbolTableRecord
100
AcDbLinetypeTableRecord
  2
DIVIDE
 70
     0
  3
__ . . __ . . __ . . __ . . __ . . __ . . __
 72
    65
 73
     6
 40
10.0
 49
5.0
 74
     0
 49
-1.0
 74
     0
 49
1.0
 74
     0
 49
-1.0
 74
     0
 49
1.0
 74
     0
 49
-1.0
 74
     0
  0
LTYPE
  5
31
330
5
100
AcDbSymbolTableRecord
100
AcDbLinetypeTableRecord
  2
BORDER
 70
     0
  3
__ __ . __ __ . __ __ . __ __ . __ __ . __ __
 72
    65
 73
     6
 40
22.5
 49
5.0
 74
     0
 49
-2.5
 74
     0
 49
5.0
 74
     0
 49
-2.5
 74
     0
 49
5.0
 74
     0
 49
-2.5
 74
     0
  0
ENDTAB
  0
TABLE
  2
LAYER
  5
2
330
0
100
AcDbSymbolTable
 70
    20
  0
LAYER
  5
F
330
2
100
AcDbSymbolTableRecord
100
AcDbLayerTableRecord
  2
0
 70
     0
 62
     7
  6
CONTINUOUS
370
    -3
390
33EF
  0
LAYER
  5
34
330
2
100
AcDbSymbolTableRecord
100
AcDbLayerTableRecord
  2
1
 70
     0
 62
     7
  6
CONTINUOUS
370
    -3
390
33EF
  0
LAYER
  5
35
330
2
100
AcDbSymbolTableRecord
100
AcDbLayerTableRecord
  2
TEN
 70
     0
 62
    -8
  6
DASHED
370
    -3
390
33EF
  0
LAYER
  5
36
330
2
100
AcDbSymbolTableRecord
100
AcDbLayerTableRecord
  2
HOJO
 70
     0
 62
     5
  6
CONTINUOUS
370
    -3
390
33EF
  0
LAYER
  5
37
330
2
100
AcDbSymbolTableRecord
100
AcDbLayerTableRecord
  2
SIN-JIS
 70
     0
 62
     2
  6
CONTINUOUS
370
    -3
390
33EF
  0
LAYER
  5
38
330
2
100
AcDbSymbolTableRecord
100
AcDbLayerTableRecord
  2
KYU-JIS
 70
     0
 62
    -3
  6
CONTINUOUS
370
    -3
390
33EF
  0
LAYER
  5
39
330
2
100
AcDbSymbolTableRecord
100
AcDbLayerTableRecord
  2
JIS
 70
     0
 62
     6
  6
CONTINUOUS
370
    -3
390
33EF
  0
LAYER
  5
3A
330
2
100
AcDbSymbolTableRecord
100
AcDbLayerTableRecord
  2
ZOKUSEI
 70
     0
 62
     4
  6
CONTINUOUS
370
    -3
390
33EF
  0
LAYER
  5
3B
330
2
100
AcDbSymbolTableRecord
100
AcDbLayerTableRecord
  2
KUROMARU
 70
     0
 62
     1
  6
CONTINUOUS
370
    -3
390
33EF
  0
LAYER
  5
3C
330
2
100
AcDbSymbolTableRecord
100
AcDbLayerTableRecord
  2
SENBAN
 70
     0
 62
     6
  6
CONTINUOUS
370
    -3
390
33EF
  0
LAYER
  5
3D
330
2
100
AcDbSymbolTableRecord
100
AcDbLayerTableRecord
  2
GAIKEI1
 70
     0
 62
     2
  6
CONTINUOUS
370
    -3
390
33EF
  0
LAYER
  5
3E
330
2
100
AcDbSymbolTableRecord
100
AcDbLayerTableRecord
  2
GAIKEI2
 70
     0
 62
     3
  6
CONTINUOUS
370
    -3
390
33EF
  0
LAYER
  5
3F
330
2
100
AcDbSymbolTableRecord
100
AcDbLayerTableRecord
  2
GAIKEI3
 70
     0
 62
     4
  6
CONTINUOUS
370
    -3
390
33EF
  0
LAYER
  5
40
330
2
100
AcDbSymbolTableRecord
100
AcDbLayerTableRecord
  2
WAKU
 70
     0
 62
     3
  6
CONTINUOUS
370
    -3
390
33EF
  0
LAYER
  5
41
330
2
100
AcDbSymbolTableRecord
100
AcDbLayerTableRecord
  2
MEMORI
 70
     0
 62
     7
  6
CONTINUOUS
370
    -3
390
33EF
  0
LAYER
  5
55C
330
2
100
AcDbSymbolTableRecord
100
AcDbLayerTableRecord
  2
DEFPOINTS
 70
     0
 62
     7
  6
CONTINUOUS
290
     0
370
    -3
390
33EF
  0
LAYER
  5
201F
330
2
100
AcDbSymbolTableRecord
100
AcDbLayerTableRecord
  2
C-CIRCUIT
 70
     0
 62
     7
  6
CONTINUOUS
370
    -3
390
33EF
  0
LAYER
  5
2E04
330
2
100
AcDbSymbolTableRecord
100
AcDbLayerTableRecord
  2
CONTROL-CIRCUIT
 70
     0
 62
     7
  6
CONTINUOUS
370
    -3
390
33EF
  0
LAYER
  5
2E06
330
2
100
AcDbSymbolTableRecord
100
AcDbLayerTableRecord
  2
WAKU-MOJI
 70
     0
 62
     7
  6
CONTINUOUS
370
    -3
390
33EF
  0
LAYER
  5
340B
330
2
100
AcDbSymbolTableRecord
100
AcDbLayerTableRecord
  2
MAIN-CIRCUIT
 70
     0
 62
     7
  6
CONTINUOUS
370
    -3
390
33EF
  0
ENDTAB
  0
TABLE
  2
STYLE
  5
3
330
0
100
AcDbSymbolTable
 70
    19
  0
STYLE
  5
10
330
3
100
AcDbSymbolTableRecord
100
AcDbTextStyleTableRecord
  2
STANDARD
 70
     0
 40
0.0
 41
0.8
 50
0.0
 71
     0
 42
30.0
  3
monotxt
  4
EXTFONT.SHX
  0
STYLE
  5
1C
330
3
100
AcDbSymbolTableRecord
100
AcDbTextStyleTableRecord
  2
M4
 70
     0
 40
0.0
 41
0.4
 50
0.0
 71
     0
 42
30.0
  3
monotxt
  4
EXTFONT.SHX
  0
STYLE
  5
1D
330
3
100
AcDbSymbolTableRecord
100
AcDbTextStyleTableRecord
  2
M5
 70
     0
 40
0.0
 41
0.5
 50
0.0
 71
     0
 42
40.0
  3
monotxt
  4
EXTFONT.SHX
  0
STYLE
  5
1E
330
3
100
AcDbSymbolTableRecord
100
AcDbTextStyleTableRecord
  2
M6
 70
     0
 40
0.0
 41
0.6
 50
0.0
 71
     0
 42
30.0
  3
monotxt
  4
EXTFONT.SHX
  0
STYLE
  5
1F
330
3
100
AcDbSymbolTableRecord
100
AcDbTextStyleTableRecord
  2
M7
 70
     0
 40
0.0
 41
0.7
 50
0.0
 71
     0
 42
25.0
  3
MONOTXT
  4
EXTFONT.SHX
  0
STYLE
  5
20
330
3
100
AcDbSymbolTableRecord
100
AcDbTextStyleTableRecord
  2
M8
 70
     0
 40
0.0
 41
0.8
 50
0.0
 71
     0
 42
30.0
  3
ROMANS
  4
EXTFONT
  0
STYLE
  5
21
330
3
100
AcDbSymbolTableRecord
100
AcDbTextStyleTableRecord
  2
M9
 70
     0
 40
0.0
 41
0.9
 50
0.0
 71
     0
 42
30.0
  3
monotxt
  4
EXTFONT.SHX
  0
STYLE
  5
22
330
3
100
AcDbSymbolTableRecord
100
AcDbTextStyleTableRecord
  2
M0
 70
     0
 40
0.0
 41
1.0
 50
0.0
 71
     0
 42
30.0
  3
monotxt
  4
EXTFONT.SHX
  0
STYLE
  5
23
330
3
100
AcDbSymbolTableRecord
100
AcDbTextStyleTableRecord
  2
TM5
 70
     4
 40
0.0
 41
0.5
 50
0.0
 71
     0
 42
30.0
  3
monotxt
  4
EXTFONT.SHX
  0
STYLE
  5
24
330
3
100
AcDbSymbolTableRecord
100
AcDbTextStyleTableRecord
  2
TM8
 70
     4
 40
0.0
 41
0.8
 50
0.0
 71
     0
 42
30.0
  3
monotxt
  4
EXTFONT.SHX
  0
STYLE
  5
25
330
3
100
AcDbSymbolTableRecord
100
AcDbTextStyleTableRecord
  2
TM0
 70
     4
 40
0.0
 41
1.0
 50
0.0
 71
     0
 42
30.0
  3
monotxt
  4
EXTFONT.SHX
  0
STYLE
  5
26
330
3
100
AcDbSymbolTableRecord
100
AcDbTextStyleTableRecord
  2
TM4
 70
     4
 40
0.0
 41
0.4
 50
0.0
 71
     0
 42
60.0
  3
MONOTXT
  4
EXTFONT.SHX
  0
STYLE
  5
27
330
3
100
AcDbSymbolTableRecord
100
AcDbTextStyleTableRecord
  2
TM6
 70
     4
 40
0.0
 41
0.6
 50
0.0
 71
     0
 42
60.0
  3
MONOTXT
  4
EXTFONT.SHX
  0
STYLE
  5
28
330
3
100
AcDbSymbolTableRecord
100
AcDbTextStyleTableRecord
  2
TM7
 70
     4
 40
0.0
 41
0.7
 50
0.0
 71
     0
 42
20.0
  3
MONOTXT
  4
EXTFONT.SHX
  0
STYLE
  5
29
330
3
100
AcDbSymbolTableRecord
100
AcDbTextStyleTableRecord
  2
TM9
 70
     4
 40
0.0
 41
0.8
 50
0.0
 71
     0
 42
60.0
  3
MONOTXT
  4
EXTFONT.SHX
  0
STYLE
  5
2B21
330
3
100
AcDbSymbolTableRecord
100
AcDbTextStyleTableRecord
  2
ASHADE
 70
     0
 40
0.2
 41
1.0
 50
0.0
 71
     0
 42
25.0
  3
txt.shx
  4
bigfont.shx
  0
STYLE
  5
342B
330
3
100
AcDbSymbolTableRecord
100
AcDbTextStyleTableRecord
  2
EXCADSTD
 70
     0
 40
0.0
 41
1.0
 50
0.0
 71
     0
 42
0.2
  3
monotxt
  4
bigfont
  0
STYLE
  5
344F
330
3
100
AcDbSymbolTableRecord
100
AcDbTextStyleTableRecord
  2
EXCADVERT
 70
     4
 40
0.0
 41
1.0
 50
0.0
 71
     0
 42
0.286885
  3
monotxt
  4
bigfont
  0
STYLE
  5
3EE3
330
3
100
AcDbSymbolTableRecord
100
AcDbTextStyleTableRecord
  2
ｽﾀｲﾙ1
 70
     0
 40
0.0
 41
0.7
 50
0.0
 71
     0
 42
25.0
  3
MS PGothic.ttf
  4

1001
ACAD
1000
MS PGothic
1071
    32818
  0
ENDTAB
  0
TABLE
  2
VIEW
  5
6
330
0
100
AcDbSymbolTable
 70
     0
  0
ENDTAB
  0
TABLE
  2
UCS
  5
7
330
0
100
AcDbSymbolTable
 70
     0
  0
ENDTAB
  0
TABLE
  2
APPID
  5
9
330
0
100
AcDbSymbolTable
 70
     7
  0
APPID
  5
11
330
9
100
AcDbSymbolTableRecord
100
AcDbRegAppTableRecord
  2
ACAD
 70
     0
  0
APPID
  5
1FCE
330
9
100
AcDbSymbolTableRecord
100
AcDbRegAppTableRecord
  2
UBOX
 70
     0
  0
APPID
  5
2B23
330
9
100
AcDbSymbolTableRecord
100
AcDbRegAppTableRecord
  2
AVE_RENDER
 70
     0
  0
APPID
  5
2B24
330
9
100
AcDbSymbolTableRecord
100
AcDbRegAppTableRecord
  2
AVE_ENTITY_MATERIAL
 70
     0
  0
APPID
  5
2B31
330
9
100
AcDbSymbolTableRecord
100
AcDbRegAppTableRecord
  2
AVE_FINISH
 70
     0
  0
APPID
  5
2B32
330
9
100
AcDbSymbolTableRecord
100
AcDbRegAppTableRecord
  2
AVE_MATERIAL
 70
     0
  0
APPID
  5
2B33
330
9
100
AcDbSymbolTableRecord
100
AcDbRegAppTableRecord
  2
AVE_GLOBAL
 70
     0
  0
ENDTAB
  0
TABLE
  2
DIMSTYLE
  5
A
330
0
100
AcDbSymbolTable
 70
     1
100
AcDbDimStyleTable
 71
     1
340
46
  0
DIMSTYLE
105
46
330
A
100
AcDbSymbolTableRecord
100
AcDbDimStyleTableRecord
  2
STANDARD
 70
     0
 40
10.0
 41
0.8
 42
1.0
 43
5.0
 44
1.5
 73
     0
 74
     0
 77
     1
140
3.5
141
1.0
146
0.8571428571428571
147
1.0
172
     1
176
     1
177
     1
178
     1
271
     0
272
     0
340
10
  0
ENDTAB
  0
TABLE
  2
BLOCK_RECORD
  5
1
330
0
100
AcDbSymbolTable
 70
    15
  0
BLOCK_RECORD
  5
18
330
1
100
AcDbSymbolTableRecord
100
AcDbBlockTableRecord
  2
*MODEL_SPACE
340
33F2
  0
BLOCK_RECORD
  5
15
330
1
100
AcDbSymbolTableRecord
100
AcDbBlockTableRecord
  2
*PAPER_SPACE
340
33F3
  0
BLOCK_RECORD
  5
2043
330
1
100
AcDbSymbolTableRecord
100
AcDbBlockTableRecord
  2
UPARO1
340
0
  0
BLOCK_RECORD
  5
2048
330
1
100
AcDbSymbolTableRecord
100
AcDbBlockTableRecord
  2
UJCB3
340
0
  0
BLOCK_RECORD
  5
26AD
330
1
100
AcDbSymbolTableRecord
100
AcDbBlockTableRecord
  2
UJEB10
340
0
  0
BLOCK_RECORD
  5
26CF
330
1
100
AcDbSymbolTableRecord
100
AcDbBlockTableRecord
  2
UJEB6
340
0
  0
BLOCK_RECORD
  5
29C5
330
1
100
AcDbSymbolTableRecord
100
AcDbBlockTableRecord
  2
SYO002
340
0
  0
BLOCK_RECORD
  5
2AF2
330
1
100
AcDbSymbolTableRecord
100
AcDbBlockTableRecord
  2
SYO001
340
0
  0
BLOCK_RECORD
  5
2DF4
330
1
100
AcDbSymbolTableRecord
100
AcDbBlockTableRecord
  2
P10
340
0
102
{BLKREFS
331
2DFB
102
}
  0
BLOCK_RECORD
  5
2DFA
330
1
100
AcDbSymbolTableRecord
100
AcDbBlockTableRecord
  2
AN07
340
0
  0
BLOCK_RECORD
  5
3043
102
{ACAD_XDICTIONARY
360
305A
102
}
330
1
100
AcDbSymbolTableRecord
100
AcDbBlockTableRecord
  2
2409618
340
0
  0
BLOCK_RECORD
  5
3498
330
1
100
AcDbSymbolTableRecord
100
AcDbBlockTableRecord
  2
TB-EU
340
0
  0
BLOCK_RECORD
  5
349D
330
1
100
AcDbSymbolTableRecord
100
AcDbBlockTableRecord
  2
TB-ED
340
0
  0
BLOCK_RECORD
  5
34A2
330
1
100
AcDbSymbolTableRecord
100
AcDbBlockTableRecord
  2
AM03
340
0
  0
BLOCK_RECORD
  5
34A7
330
1
100
AcDbSymbolTableRecord
100
AcDbBlockTableRecord
  2
AL03
340
0
  0
BLOCK_RECORD
  5
34AC
330
1
100
AcDbSymbolTableRecord
100
AcDbBlockTableRecord
  2
AY03
340
0
  0
BLOCK_RECORD
  5
34BA
330
1
100
AcDbSymbolTableRecord
100
AcDbBlockTableRecord
  2
AY02
340
0
  0
ENDTAB
  0
ENDSEC
  0
SECTION
  2
BLOCKS
  0
BLOCK
  5
44
330
18
100
AcDbEntity
  8
0
100
AcDbBlockBegin
  2
*MODEL_SPACE
 70
     0
 10
0.0
 20
0.0
 30
0.0
  3
*MODEL_SPACE
  1

  0
ENDBLK
  5
45
330
18
100
AcDbEntity
  8
0
100
AcDbBlockEnd
  0
BLOCK
  5
42
330
15
100
AcDbEntity
 67
     1
  8
0
100
AcDbBlockBegin
  2
*PAPER_SPACE
 70
     0
 10
0.0
 20
0.0
 30
0.0
  3
*PAPER_SPACE
  1

  0
ENDBLK
  5
43
330
15
100
AcDbEntity
 67
     1
  8
0
100
AcDbBlockEnd
  0
BLOCK
  5
2046
330
2043
100
AcDbEntity
  8
0
100
AcDbBlockBegin
  2
UPARO1
 70
     0
 10
0.0
 20
0.0
 30
0.0
  3
UPARO1
  1

  0
SOLID
  5
2044
330
2043
100
AcDbEntity
  8
0
  6
ByBlock
 62
     0
100
AcDbTrace
 10
-2.5
 20
-0.4166666666665151
 30
0.0
 11
-2.5
 21
0.4166666666665151
 31
0.0
 12
0.0
 22
0.0
 32
0.0
 13
0.0
 23
0.0
 33
0.0
  0
LINE
  5
2045
330
2043
100
AcDbEntity
  8
0
  6
ByBlock
 62
     0
100
AcDbLine
 10
-2.5
 20
0.0
 30
0.0
 11
-5.0
 21
0.0
 31
0.0
  0
ENDBLK
  5
2047
330
2043
100
AcDbEntity
  8
0
100
AcDbBlockEnd
  0
BLOCK
  5
2073
330
2048
100
AcDbEntity
  8
0
100
AcDbBlockBegin
  2
UJCB3
 70
     2
 10
0.0
 20
0.0
 30
0.0
  3
UJCB3
  1

  0
LINE
  5
2049
330
2048
100
AcDbEntity
  8
KYU-JIS
  6
ByBlock
100
AcDbLine
 10
24.99999999999977
 20
-0.0000000000004547
 30
0.0
 11
124.999998
 21
-0.0000000000004547
 31
0.0
  0
LINE
  5
204A
330
2048
100
AcDbEntity
  8
KYU-JIS
  6
ByBlock
100
AcDbLine
 10
-0.0000000000002274
 20
-49.99999900000101
 30
0.0
 11
-0.0000000000002274
 21
-99.99999900000105
 31
0.0
  0
LINE
  5
204B
330
2048
100
AcDbEntity
  8
KYU-JIS
  6
ByBlock
100
AcDbLine
 10
-0.0000000000002274
 20
99.9999989999992
 30
0.0
 11
-0.0000000000002274
 21
49.9999989999992
 31
0.0
  0
CIRCLE
  5
204C
330
2048
100
AcDbEntity
  8
KYU-JIS
  6
ByBlock
100
AcDbCircle
 10
-0.0000000000002274
 20
-41.99996900000086
 30
0.0
 40
8.0
  0
CIRCLE
  5
204D
330
2048
100
AcDbEntity
  8
KYU-JIS
  6
ByBlock
100
AcDbCircle
 10
-0.0000000000002274
 20
41.99996899999905
 30
0.0
 40
8.0
  0
ARC
  5
204E
330
2048
100
AcDbEntity
  8
KYU-JIS
  6
ByBlock
100
AcDbCircle
 10
-35.83332000000087
 20
-0.0000000000009095
 30
0.0
 40
60.83331999999999
100
AcDbArc
 50
321.8412169999998
 51
38.15879799999999
  0
LINE
  5
204F
330
2048
100
AcDbEntity
  8
KYU-JIS
  6
ByBlock
100
AcDbLine
 10
49.99999899999942
 20
-49.99999900000101
 30
0.0
 11
49.99999899999942
 21
-99.99999900000105
 31
0.0
  0
LINE
  5
2050
330
2048
100
AcDbEntity
  8
KYU-JIS
  6
ByBlock
100
AcDbLine
 10
49.99999899999942
 20
99.9999989999992
 30
0.0
 11
49.99999899999942
 21
49.9999989999992
 31
0.0
  0
CIRCLE
  5
2051
330
2048
100
AcDbEntity
  8
KYU-JIS
  6
ByBlock
100
AcDbCircle
 10
49.99999899999942
 20
-41.99996900000086
 30
0.0
 40
8.0
  0
CIRCLE
  5
2052
330
2048
100
AcDbEntity
  8
KYU-JIS
  6
ByBlock
100
AcDbCircle
 10
49.99999899999942
 20
41.99996899999905
 30
0.0
 40
8.0
  0
ARC
  5
2053
330
2048
100
AcDbEntity
  8
KYU-JIS
  6
ByBlock
100
AcDbCircle
 10
14.1666789999997
 20
-0.0000000000009095
 30
0.0
 40
60.83331999999999
100
AcDbArc
 50
321.8412169999998
 51
38.15879799999999
  0
LINE
  5
2054
330
2048
100
AcDbEntity
  8
KYU-JIS
  6
ByBlock
100
AcDbLine
 10
99.99999899999945
 20
-49.99999900000101
 30
0.0
 11
99.99999899999945
 21
-99.99999900000105
 31
0.0
  0
LINE
  5
2055
330
2048
100
AcDbEntity
  8
KYU-JIS
  6
ByBlock
100
AcDbLine
 10
99.99999899999945
 20
99.9999989999992
 30
0.0
 11
99.99999899999945
 21
49.9999989999992
 31
0.0
  0
CIRCLE
  5
2056
330
2048
100
AcDbEntity
  8
KYU-JIS
  6
ByBlock
100
AcDbCircle
 10
99.99999899999945
 20
-41.99996900000086
 30
0.0
 40
8.0
  0
CIRCLE
  5
2057
330
2048
100
AcDbEntity
  8
KYU-JIS
  6
ByBlock
100
AcDbCircle
 10
99.99999899999945
 20
41.99996899999905
 30
0.0
 40
8.0
  0
ARC
  5
2058
330
2048
100
AcDbEntity
  8
KYU-JIS
  6
ByBlock
100
AcDbCircle
 10
64.16667799999936
 20
-0.0000000000009095
 30
0.0
 40
60.83331999999999
100
AcDbArc
 50
321.8412169999998
 51
38.15879799999999
  0
LINE
  5
2059
330
2048
100
AcDbEntity
  8
SIN-JIS
  6
HIDDEN
100
AcDbLine
 10
-15.62500000000022
 20
19.99999999999909
 30
0.0
 11
84.37499899999943
 21
19.99999999999909
 31
0.0
  0
LINE
  5
205A
330
2048
100
AcDbEntity
  8
SIN-JIS
  6
ByBlock
100
AcDbLine
 10
92.00012099999979
 20
48.00002999999925
 30
0.0
 11
107.9998759999996
 21
31.99996899999905
 31
0.0
  0
LINE
  5
205B
330
2048
100
AcDbEntity
  8
SIN-JIS
  6
ByBlock
100
AcDbLine
 10
92.00012099999979
 20
31.99996899999905
 30
0.0
 11
107.9998759999996
 21
48.00002999999925
 31
0.0
  0
LINE
  5
205C
330
2048
100
AcDbEntity
  8
SIN-JIS
  6
ByBlock
100
AcDbLine
 10
74.99999899999943
 20
49.9999989999992
 30
0.0
 11
99.99999899999945
 21
-30.00000000000091
 31
0.0
  0
LINE
  5
205D
330
2048
100
AcDbEntity
  8
SIN-JIS
  6
ByBlock
100
AcDbLine
 10
99.99999899999945
 20
-30.00000000000091
 30
0.0
 11
99.99999899999945
 21
-99.99999900000105
 31
0.0
  0
LINE
  5
205E
330
2048
100
AcDbEntity
  8
SIN-JIS
  6
ByBlock
100
AcDbLine
 10
99.99999899999945
 20
99.9999989999992
 30
0.0
 11
99.99999899999945
 21
39.9999989999992
 31
0.0
  0
LINE
  5
205F
330
2048
100
AcDbEntity
  8
SIN-JIS
  6
ByBlock
100
AcDbLine
 10
42.00012099999979
 20
48.00002999999925
 30
0.0
 11
57.99987699999906
 21
31.99996899999905
 31
0.0
  0
LINE
  5
2060
330
2048
100
AcDbEntity
  8
SIN-JIS
  6
ByBlock
100
AcDbLine
 10
42.00012099999979
 20
31.99996899999905
 30
0.0
 11
57.99987699999906
 21
48.00002999999925
 31
0.0
  0
LINE
  5
2061
330
2048
100
AcDbEntity
  8
SIN-JIS
  6
ByBlock
100
AcDbLine
 10
24.99999999999977
 20
49.9999989999992
 30
0.0
 11
49.99999899999942
 21
-30.00000000000091
 31
0.0
  0
LINE
  5
2062
330
2048
100
AcDbEntity
  8
SIN-JIS
  6
ByBlock
100
AcDbLine
 10
49.99999899999942
 20
-30.00000000000091
 30
0.0
 11
49.99999899999942
 21
-99.99999900000105
 31
0.0
  0
LINE
  5
2063
330
2048
100
AcDbEntity
  8
SIN-JIS
  6
ByBlock
100
AcDbLine
 10
49.99999899999942
 20
99.9999989999992
 30
0.0
 11
49.99999899999942
 21
39.9999989999992
 31
0.0
  0
LINE
  5
2064
330
2048
100
AcDbEntity
  8
SIN-JIS
  6
ByBlock
100
AcDbLine
 10
-7.999878000000762
 20
48.00002999999925
 30
0.0
 11
7.999877999999397
 21
31.99996899999905
 31
0.0
  0
LINE
  5
2065
330
2048
100
AcDbEntity
  8
SIN-JIS
  6
ByBlock
100
AcDbLine
 10
-7.999878000000762
 20
31.99996899999905
 30
0.0
 11
7.999877999999397
 21
48.00002999999925
 31
0.0
  0
LINE
  5
2066
330
2048
100
AcDbEntity
  8
SIN-JIS
  6
ByBlock
100
AcDbLine
 10
-25.00000000000023
 20
49.9999989999992
 30
0.0
 11
-0.0000000000002274
 21
-30.00000000000091
 31
0.0
  0
LINE
  5
2067
330
2048
100
AcDbEntity
  8
SIN-JIS
  6
ByBlock
100
AcDbLine
 10
-0.0000000000002274
 20
-30.00000000000091
 30
0.0
 11
-0.0000000000002274
 21
-99.99999900000105
 31
0.0
  0
LINE
  5
2068
330
2048
100
AcDbEntity
  8
SIN-JIS
  6
ByBlock
100
AcDbLine
 10
-0.0000000000002274
 20
99.9999989999992
 30
0.0
 11
-0.0000000000002274
 21
39.9999989999992
 31
0.0
  0
ATTDEF
  5
2069
330
2048
100
AcDbEntity
  8
ZOKUSEI
  6
Continuous
100
AcDbText
 10
150.0
 20
20.0
 30
0.0
 40
25.0
  1
MCCB
 41
0.7
  7
M7
100
AcDbAttributeDefinition
  3
記号を入力してください
  2
KIGO
 70
     8
  0
ATTDEF
  5
206A
330
2048
100
AcDbEntity
  8
ZOKUSEI
100
AcDbText
 10
269.9999959999999
 20
19.99999999999909
 30
0.0
 40
25.0
  1
3P
 41
0.7
  7
M7
100
AcDbAttributeDefinition
  3
極数を入力してください:
  2
KYOKU
 70
     0
  0
ATTDEF
  5
206B
330
2048
100
AcDbEntity
  8
ZOKUSEI
100
AcDbText
 10
149.9999989999996
 20
-20.00000796306357
 30
0.0
 40
25.0
  1
100AF
 41
0.7
  7
M7
100
AcDbAttributeDefinition
  3
フレーム電流を入力してください
  2
TEIKAKU1
 70
     0
  0
ATTDEF
  5
206C
330
2048
100
AcDbEntity
  8
ZOKUSEI
100
AcDbText
 10
269.9999989999996
 20
-20.00000796306357
 30
0.0
 40
25.0
  1
100AT
 41
0.7
  7
M7
100
AcDbAttributeDefinition
  3
定格電流を入力してください
  2
TEIKAKU2
 70
     0
  0
ATTDEF
  5
206D
330
2048
100
AcDbEntity
  8
ZOKUSEI
100
AcDbText
 10
149.999998
 20
-59.99999900000101
 30
0.0
 40
25.0
  1
(NF100-CS)
 41
0.7
  7
M7
100
AcDbAttributeDefinition
  3
形式を入力してください:
  2
KATA
 70
     0
  0
POINT
  5
206E
330
2048
100
AcDbEntity
  8
TEN
100
AcDbPoint
 10
149.999998
 20
19.99999999999909
 30
0.0
  0
POINT
  5
206F
330
2048
100
AcDbEntity
  8
TEN
100
AcDbPoint
 10
269.9999959999991
 20
19.99999999999953
 30
0.0
  0
POINT
  5
2070
330
2048
100
AcDbEntity
  8
TEN
100
AcDbPoint
 10
149.999998
 20
-20.00000000000091
 30
0.0
  0
POINT
  5
2071
330
2048
100
AcDbEntity
  8
TEN
100
AcDbPoint
 10
269.9999969999999
 20
-20.00000796306357
 30
0.0
  0
POINT
  5
2072
330
2048
100
AcDbEntity
  8
TEN
100
AcDbPoint
 10
149.999998
 20
-59.99999900000101
 30
0.0
  0
ENDBLK
  5
2074
330
2048
100
AcDbEntity
  8
0
100
AcDbBlockEnd
  0
BLOCK
  5
26CC
330
26AD
100
AcDbEntity
  8
0
100
AcDbBlockBegin
  2
UJEB10
 70
     0
 10
0.0
 20
0.0
 30
0.0
  3
UJEB10
  1

  0
ARC
  5
26AE
330
26AD
100
AcDbEntity
  8
KYU-JIS
  6
ByBlock
100
AcDbCircle
 10
100.0
 20
-35.83328200000004
 30
0.0
 40
60.83331999999999
100
AcDbArc
 50
51.84115999999999
 51
128.1588439999999
  0
ARC
  5
26AF
330
26AD
100
AcDbEntity
  8
KYU-JIS
  6
ByBlock
100
AcDbCircle
 10
100.0
 20
-85.83328100000017
 30
0.0
 40
60.83331999999999
100
AcDbArc
 50
51.84115999999999
 51
128.1588439999999
  0
LWPOLYLINE
  5
26B0
330
26AD
100
AcDbEntity
  8
SIN-JIS
  6
HIDDEN
100
AcDbPolyline
 90
        4
 70
     0
 43
0.0
 10
80.0
 20
-15.625
 10
80.0
 20
20.0
 10
164.999999
 20
20.0
 10
164.999999
 20
0.0
  0
LINE
  5
26B1
330
26AD
100
AcDbEntity
  8
SIN-JIS
  6
ByBlock
100
AcDbLine
 10
50.00000099999988
 20
-25.0
 30
0.0
 11
130.0
 21
0.0
 31
0.0
  0
LINE
  5
26B2
330
26AD
100
AcDbEntity
  8
SIN-JIS
  6
ByBlock
100
AcDbLine
 10
50.00000099999988
 20
-74.99999899999966
 30
0.0
 11
130.0
 21
-49.99999899999965
 31
0.0
  0
LINE
  5
26B3
330
26AD
100
AcDbEntity
  8
SIN-JIS
  6
HIDDEN
100
AcDbLine
 10
80.0
 20
-65.62499899999966
 30
0.0
 11
80.0
 21
-15.625
 31
0.0
  0
LINE
  5
26B4
330
26AD
100
AcDbEntity
  8
KYU-JIS
  6
ByBlock
100
AcDbLine
 10
50.00000099999988
 20
0.0
 30
0.0
 11
0.0000009999998838
 21
0.0
 31
0.0
  0
LINE
  5
26B5
330
26AD
100
AcDbEntity
  8
KYU-JIS
  6
ByBlock
100
AcDbLine
 10
50.00000099999988
 20
-49.99999899999965
 30
0.0
 11
0.0000009999998838
 21
-49.99999899999965
 31
0.0
  0
LINE
  5
26B6
330
26AD
100
AcDbEntity
  8
SIN-JIS
  6
ByBlock
100
AcDbLine
 10
0.0000009999998838
 20
0.0
 30
0.0
 11
60.00000099999988
 21
0.0
 31
0.0
  0
LINE
  5
26B7
330
26AD
100
AcDbEntity
  8
SIN-JIS
  6
ByBlock
100
AcDbLine
 10
0.0000009999998838
 20
-49.99999899999965
 30
0.0
 11
60.00000099999988
 21
-49.99999899999965
 31
0.0
  0
CIRCLE
  5
26B8
330
26AD
100
AcDbEntity
  8
KYU-JIS
  6
ByBlock
100
AcDbCircle
 10
58.00018399999999
 20
-49.99999899999965
 30
0.0
 40
8.0
  0
LINE
  5
26B9
330
26AD
100
AcDbEntity
  8
SIN-JIS
  6
ByBlock
100
AcDbLine
 10
51.99997000000006
 20
-57.9998770000002
 30
0.0
 11
68.00003100000004
 21
-42.00012100000003
 31
0.0
  0
LINE
  5
26BA
330
26AD
100
AcDbEntity
  8
SIN-JIS
  6
ByBlock
100
AcDbLine
 10
68.00003100000004
 20
-57.9998770000002
 30
0.0
 11
51.99997000000006
 21
-42.00012100000003
 31
0.0
  0
CIRCLE
  5
26BB
330
26AD
100
AcDbEntity
  8
KYU-JIS
  6
ByBlock
100
AcDbCircle
 10
58.00018399999999
 20
0.0
 30
0.0
 40
8.0
  0
LINE
  5
26BC
330
26AD
100
AcDbEntity
  8
SIN-JIS
  6
ByBlock
100
AcDbLine
 10
51.99997000000006
 20
-7.999878000000079
 30
0.0
 11
68.00003100000004
 21
7.999878000000079
 31
0.0
  0
LINE
  5
26BD
330
26AD
100
AcDbEntity
  8
SIN-JIS
  6
ByBlock
100
AcDbLine
 10
68.00003100000004
 20
-7.999878000000079
 30
0.0
 11
51.99997000000006
 21
7.999878000000079
 31
0.0
  0
LWPOLYLINE
  5
26BE
330
26AD
100
AcDbEntity
  8
KYU-JIS
  6
ByBlock
100
AcDbPolyline
 90
        5
 70
     0
 43
0.0
 10
159.999999
 20
20.0
 10
167.499999
 20
-69.99999899999966
 10
174.999999
 20
20.0
 10
182.499999
 20
-69.99999899999966
 10
189.999999
 20
20.0
  0
ARC
  5
26BF
330
26AD
100
AcDbEntity
  8
SIN-JIS
  6
ByBlock
100
AcDbCircle
 10
172.499999
 20
-59.99999899999965
 30
0.0
 40
7.5
100
AcDbArc
 50
180.0
 51
0.0
  0
ARC
  5
26C0
330
26AD
100
AcDbEntity
  8
SIN-JIS
  6
ByBlock
100
AcDbCircle
 10
157.499999
 20
-59.99999899999965
 30
0.0
 40
7.5
100
AcDbArc
 50
180.0
 51
0.0
  0
LWPOLYLINE
  5
26C1
330
26AD
100
AcDbEntity
  8
KYU-JIS
  6
ByBlock
100
AcDbPolyline
 90
        4
 70
     0
 43
0.0
 10
100.0
 20
25.0
 10
100.0
 20
30.0
 10
174.999999
 20
30.0
 10
174.999999
 20
20.0
  0
LINE
  5
26C2
330
26AD
100
AcDbEntity
  8
KYU-JIS
  6
ByBlock
100
AcDbLine
 10
199.999999
 20
0.0
 30
0.0
 11
149.999999
 21
0.0
 31
0.0
  0
LINE
  5
26C3
330
26AD
100
AcDbEntity
  8
KYU-JIS
  6
ByBlock
100
AcDbLine
 10
199.999999
 20
-49.99999899999965
 30
0.0
 11
149.999999
 21
-49.99999899999965
 31
0.0
  0
LINE
  5
26C4
330
26AD
100
AcDbEntity
  8
SIN-JIS
  6
ByBlock
100
AcDbLine
 10
130.0
 20
0.0
 30
0.0
 11
199.999999
 21
0.0
 31
0.0
  0
LINE
  5
26C5
330
26AD
100
AcDbEntity
  8
SIN-JIS
  6
ByBlock
100
AcDbLine
 10
130.0
 20
-49.99999899999965
 30
0.0
 11
199.999999
 21
-49.99999899999965
 31
0.0
  0
LINE
  5
26C6
330
26AD
100
AcDbEntity
  8
KYU-JIS
  6
ByBlock
100
AcDbLine
 10
100.0
 20
-25.0
 30
0.0
 11
100.0
 21
25.0
 31
0.0
  0
LINE
  5
26C7
330
26AD
100
AcDbEntity
  8
SIN-JIS
  6
ByBlock
100
AcDbLine
 10
149.999999
 20
-59.99999899999965
 30
0.0
 11
149.999999
 21
10.0
 31
0.0
  0
CIRCLE
  5
26C8
330
26AD
100
AcDbEntity
  8
KYU-JIS
  6
ByBlock
100
AcDbCircle
 10
142.000121
 20
-49.99999899999965
 30
0.0
 40
8.0
  0
CIRCLE
  5
26C9
330
26AD
100
AcDbEntity
  8
KYU-JIS
  6
ByBlock
100
AcDbCircle
 10
142.000121
 20
0.0
 30
0.0
 40
8.0
  0
LINE
  5
26CA
330
26AD
100
AcDbEntity
  8
SIN-JIS
  6
ByBlock
100
AcDbLine
 10
179.999999
 20
-59.99999899999965
 30
0.0
 11
179.999999
 21
10.0
 31
0.0
  0
LINE
  5
26CB
330
26AD
100
AcDbEntity
  8
SIN-JIS
  6
ByBlock
100
AcDbLine
 10
164.999999
 20
-59.99999899999965
 30
0.0
 11
164.999999
 21
10.0
 31
0.0
  0
ENDBLK
  5
26CD
330
26AD
100
AcDbEntity
  8
0
100
AcDbBlockEnd
  0
BLOCK
  5
26EE
330
26CF
100
AcDbEntity
  8
0
100
AcDbBlockBegin
  2
UJEB6
 70
     0
 10
0.0
 20
0.0
 30
0.0
  3
UJEB6
  1

  0
LINE
  5
26D0
330
26CF
100
AcDbEntity
  8
SIN-JIS
  6
ByBlock
100
AcDbLine
 10
-0.0000010000003385
 20
-50.0
 30
0.0
 11
-60.00000100000034
 21
-50.0
 31
0.0
  0
LINE
  5
26D1
330
26CF
100
AcDbEntity
  8
SIN-JIS
  6
ByBlock
100
AcDbLine
 10
-50.00000100000034
 20
-75.0
 30
0.0
 11
-130.0000000000009
 21
-50.0
 31
0.0
  0
LINE
  5
26D2
330
26CF
100
AcDbEntity
  8
SIN-JIS
  6
ByBlock
100
AcDbLine
 10
-0.0000010000003385
 20
-0.0000010000003385
 30
0.0
 11
-60.00000100000034
 21
-0.0000010000003385
 31
0.0
  0
LINE
  5
26D3
330
26CF
100
AcDbEntity
  8
SIN-JIS
  6
ByBlock
100
AcDbLine
 10
-50.00000100000034
 20
-25.0
 30
0.0
 11
-130.0000000000009
 21
-0.0000010000003385
 31
0.0
  0
CIRCLE
  5
26D4
330
26CF
100
AcDbEntity
  8
KYU-JIS
  6
ByBlock
100
AcDbCircle
 10
-58.00018400000046
 20
0.0
 30
0.0
 40
8.0
  0
CIRCLE
  5
26D5
330
26CF
100
AcDbEntity
  8
KYU-JIS
  6
ByBlock
100
AcDbCircle
 10
-58.00018400000046
 20
-49.99999899999965
 30
0.0
 40
8.0
  0
LINE
  5
26D6
330
26CF
100
AcDbEntity
  8
SIN-JIS
  6
ByBlock
100
AcDbLine
 10
-149.9999990000004
 20
-60.0
 30
0.0
 11
-149.9999990000004
 21
9.999998999999659
 31
0.0
  0
LINE
  5
26D7
330
26CF
100
AcDbEntity
  8
SIN-JIS
  6
ByBlock
100
AcDbLine
 10
-164.9999990000004
 20
-60.0
 30
0.0
 11
-164.9999990000004
 21
9.999998999999659
 31
0.0
  0
LINE
  5
26D8
330
26CF
100
AcDbEntity
  8
SIN-JIS
  6
ByBlock
100
AcDbLine
 10
-179.9999990000005
 20
-60.0
 30
0.0
 11
-179.9999990000005
 21
9.999998999999659
 31
0.0
  0
LWPOLYLINE
  5
26D9
330
26CF
100
AcDbEntity
  8
SIN-JIS
  6
HIDDEN
100
AcDbPolyline
 90
        4
 70
     0
 43
0.0
 10
-80.0000000000009
 20
-15.62500100000034
 10
-80.0000000000009
 20
19.99999899999965
 10
-164.9999990000004
 20
19.99999899999965
 10
-164.9999990000004
 20
-0.0000010000003385
  0
LINE
  5
26DA
330
26CF
100
AcDbEntity
  8
KYU-JIS
  6
ByBlock
100
AcDbLine
 10
-100.0
 20
-25.0
 30
0.0
 11
-100.0
 21
25.0
 31
0.0
  0
LWPOLYLINE
  5
26DB
330
26CF
100
AcDbEntity
  8
KYU-JIS
  6
ByBlock
100
AcDbPolyline
 90
        5
 70
     0
 43
0.0
 10
-159.9999990000004
 20
20.0
 10
-167.4999990000005
 20
-69.99999899999966
 10
-174.9999990000004
 20
20.0
 10
-182.4999990000004
 20
-69.99999899999966
 10
-189.9999990000004
 20
20.0
  0
ARC
  5
26DC
330
26CF
100
AcDbEntity
  8
KYU-JIS
  6
ByBlock
100
AcDbCircle
 10
-100.0
 20
-85.83328099999972
 30
0.0
 40
60.83331999999999
100
AcDbArc
 50
51.84115999999999
 51
128.1588439999999
  0
LINE
  5
26DD
330
26CF
100
AcDbEntity
  8
SIN-JIS
  6
ByBlock
100
AcDbLine
 10
-130.0000000000009
 20
-50.0
 30
0.0
 11
-199.9999990000004
 21
-50.0
 31
0.0
  0
ARC
  5
26DE
330
26CF
100
AcDbEntity
  8
SIN-JIS
  6
ByBlock
100
AcDbCircle
 10
-172.4999990000004
 20
-60.0
 30
0.0
 40
7.5
100
AcDbArc
 50
180.0
 51
0.0
  0
LINE
  5
26DF
330
26CF
100
AcDbEntity
  8
KYU-JIS
  6
ByBlock
100
AcDbLine
 10
-199.9999990000004
 20
-49.99999899999965
 30
0.0
 11
-149.9999990000004
 21
-49.99999899999965
 31
0.0
  0
ARC
  5
26E0
330
26CF
100
AcDbEntity
  8
SIN-JIS
  6
ByBlock
100
AcDbCircle
 10
-157.4999990000004
 20
-60.0
 30
0.0
 40
7.5
100
AcDbArc
 50
180.0
 51
0.0
  0
CIRCLE
  5
26E1
330
26CF
100
AcDbEntity
  8
KYU-JIS
  6
ByBlock
100
AcDbCircle
 10
-142.0001210000009
 20
-49.99999899999965
 30
0.0
 40
8.0
  0
LINE
  5
26E2
330
26CF
100
AcDbEntity
  8
SIN-JIS
  6
ByBlock
100
AcDbLine
 10
-68.00003100000049
 20
-57.99987800000053
 30
0.0
 11
-51.99997000000075
 21
-42.00012200000037
 31
0.0
  0
LINE
  5
26E3
330
26CF
100
AcDbEntity
  8
SIN-JIS
  6
ByBlock
100
AcDbLine
 10
-51.99997000000075
 20
-57.99987800000053
 30
0.0
 11
-68.00003100000049
 21
-42.00012200000037
 31
0.0
  0
LINE
  5
26E4
330
26CF
100
AcDbEntity
  8
SIN-JIS
  6
HIDDEN
100
AcDbLine
 10
-80.0000000000009
 20
-65.625
 30
0.0
 11
-80.0000000000009
 21
-15.62500100000034
 31
0.0
  0
LWPOLYLINE
  5
26E5
330
26CF
100
AcDbEntity
  8
KYU-JIS
  6
ByBlock
100
AcDbPolyline
 90
        4
 70
     0
 43
0.0
 10
-100.0
 20
25.0
 10
-100.0
 20
30.0
 10
-174.9999990000004
 20
30.0
 10
-174.9999990000004
 20
20.0
  0
ARC
  5
26E6
330
26CF
100
AcDbEntity
  8
KYU-JIS
  6
ByBlock
100
AcDbCircle
 10
-100.0
 20
-35.83328199999959
 30
0.0
 40
60.83331999999999
100
AcDbArc
 50
51.84115999999999
 51
128.1588439999999
  0
LINE
  5
26E7
330
26CF
100
AcDbEntity
  8
SIN-JIS
  6
ByBlock
100
AcDbLine
 10
-130.0000000000009
 20
-0.0000010000003385
 30
0.0
 11
-199.9999990000004
 21
-0.0000010000003385
 31
0.0
  0
LINE
  5
26E8
330
26CF
100
AcDbEntity
  8
KYU-JIS
  6
ByBlock
100
AcDbLine
 10
-199.9999990000004
 20
0.0
 30
0.0
 11
-149.9999990000004
 21
0.0
 31
0.0
  0
CIRCLE
  5
26E9
330
26CF
100
AcDbEntity
  8
KYU-JIS
  6
ByBlock
100
AcDbCircle
 10
-142.0001210000009
 20
0.0
 30
0.0
 40
8.0
  0
LINE
  5
26EA
330
26CF
100
AcDbEntity
  8
SIN-JIS
  6
ByBlock
100
AcDbLine
 10
-68.00003100000049
 20
-7.999878999999964
 30
0.0
 11
-51.99997000000075
 21
7.999876999999742
 31
0.0
  0
LINE
  5
26EB
330
26CF
100
AcDbEntity
  8
SIN-JIS
  6
ByBlock
100
AcDbLine
 10
-51.99997000000075
 20
-7.999878999999964
 30
0.0
 11
-68.00003100000049
 21
7.999876999999742
 31
0.0
  0
LINE
  5
26EC
330
26CF
100
AcDbEntity
  8
KYU-JIS
  6
ByBlock
100
AcDbLine
 10
-50.00000100000034
 20
-49.99999899999965
 30
0.0
 11
-0.0000010000003385
 21
-49.99999899999965
 31
0.0
  0
LINE
  5
26ED
330
26CF
100
AcDbEntity
  8
KYU-JIS
  6
ByBlock
100
AcDbLine
 10
-50.00000100000034
 20
0.0
 30
0.0
 11
-0.0000010000003385
 21
0.0
 31
0.0
  0
ENDBLK
  5
26EF
330
26CF
100
AcDbEntity
  8
0
100
AcDbBlockEnd
  0
BLOCK
  5
29C8
330
29C5
100
AcDbEntity
  8
0
100
AcDbBlockBegin
  2
SYO002
 70
     0
 10
0.0
 20
0.0
 30
0.0
  3
SYO002
  1

  0
CIRCLE
  5
29C6
330
29C5
100
AcDbEntity
  8
0
100
AcDbCircle
 10
0.0
 20
0.0
 30
0.0
 40
0.4
  0
CIRCLE
  5
29C7
330
29C5
100
AcDbEntity
  8
0
100
AcDbCircle
 10
0.0
 20
0.0
 30
0.0
 40
0.5
  0
ENDBLK
  5
29C9
330
29C5
100
AcDbEntity
  8
0
100
AcDbBlockEnd
  0
BLOCK
  5
2AF4
330
2AF2
100
AcDbEntity
  8
0
100
AcDbBlockBegin
  2
SYO001
 70
     0
 10
0.0
 20
0.0
 30
0.0
  3
SYO001
  1

  0
CIRCLE
  5
2AF3
330
2AF2
100
AcDbEntity
  8
0
100
AcDbCircle
 10
0.0
 20
0.0
 30
0.0
 40
0.5
  0
ENDBLK
  5
2AF5
330
2AF2
100
AcDbEntity
  8
0
100
AcDbBlockEnd
  0
BLOCK
  5
2DF8
330
2DF4
100
AcDbEntity
  8
0
 62
     7
100
AcDbBlockBegin
  2
P10
 70
     0
 10
0.0
 20
0.0
 30
0.0
  3
P10
  1

  0
LINE
  5
2DF5
330
2DF4
100
AcDbEntity
  8
JIS
  6
Continuous
 62
     7
100
AcDbLine
 10
-10.0
 20
-10.0
 30
0.0
 11
10.0
 21
-10.0
 31
0.0
  0
LINE
  5
2DF6
330
2DF4
100
AcDbEntity
  8
JIS
  6
Continuous
 62
     7
100
AcDbLine
 10
-20.0
 20
0.0
 30
0.0
 11
20.0
 21
0.0
 31
0.0
  0
LINE
  5
2DF7
330
2DF4
100
AcDbEntity
  8
JIS
  6
Continuous
 62
     7
100
AcDbLine
 10
-5.0
 20
-20.0
 30
0.0
 11
5.0
 21
-20.0
 31
0.0
  0
ENDBLK
  5
2DF9
330
2DF4
100
AcDbEntity
  8
0
 62
     7
100
AcDbBlockEnd
  0
BLOCK
  5
2DFC
330
2DFA
100
AcDbEntity
  8
0
100
AcDbBlockBegin
  2
AN07
 70
     0
 10
0.0
 20
0.0
 30
0.0
  3
AN07
  1

  0
INSERT
  5
2DFB
330
2DFA
100
AcDbEntity
  8
C-CIRCUIT
  6
ByBlock
 62
     7
100
AcDbBlockReference
  2
P10
 10
0.0
 20
0.0
 30
0.0
  0
ENDBLK
  5
2DFD
330
2DFA
100
AcDbEntity
  8
0
100
AcDbBlockEnd
  0
BLOCK
  5
3044
330
3043
100
AcDbEntity
  8
0
100
AcDbBlockBegin
  2
2409618
 70
     0
 10
0.0
 20
0.0
 30
0.0
  3
2409618
  1
C:\Zumen\8160628島根小学校改築電気設備工事\2LW-1・2T-1\2409618.dwg
  0
POINT
  5
340D
330
3043
100
AcDbEntity
  8
TEN
  6
Continuous
 62
     4
100
AcDbPoint
 10
3782.0
 20
103.0
 30
0.0
  0
POINT
  5
340E
330
3043
100
AcDbEntity
  8
TEN
  6
Continuous
 62
     4
100
AcDbPoint
 10
3781.0
 20
215.0
 30
0.0
  0
POINT
  5
340F
330
3043
100
AcDbEntity
  8
TEN
  6
Continuous
 62
     4
100
AcDbPoint
 10
4018.0
 20
80.12500000000001
 30
0.0
  0
POINT
  5
3410
330
3043
100
AcDbEntity
  8
TEN
  6
Continuous
 62
     4
100
AcDbPoint
 10
3990.0
 20
124.375
 30
0.0
  0
POINT
  5
3411
330
3043
100
AcDbEntity
  8
TEN
  6
Continuous
 62
     4
100
AcDbPoint
 10
1652.2
 20
187.3999999999999
 30
0.0
  0
POINT
  5
3412
330
3043
100
AcDbEntity
  8
TEN
  6
Continuous
 62
     4
100
AcDbPoint
 10
1710.0
 20
187.1
 30
0.0
  0
POINT
  5
3413
330
3043
100
AcDbEntity
  8
TEN
  6
Continuous
 62
     4
100
AcDbPoint
 10
1767.8
 20
186.8
 30
0.0
  0
LWPOLYLINE
  5
3414
102
{ACAD_REACTORS
330
3479
102
}
330
3043
100
AcDbEntity
  8
WAKU
  6
Continuous
 62
     7
100
AcDbPolyline
 90
       70
 70
     1
 43
0.0
 10
1869.39
 20
108.4624190070458
 10
1868.950466641679
 20
107.893481361466
 10
1868.195926382809
 20
107.118483114415
 10
1867.36244213045
 20
106.4822917315619
 10
1866.466236707499
 20
105.9972899545159
 10
1865.524753733089
 20
105.6729177911879
 10
1864.55631810239
 20
105.5154887767669
 10
1863.579779313388
 20
105.5280670879479
 10
1862.61414458282
 20
105.71040790221
 10
1861.6782088923
 20
106.058962163013
 10
1860.79018916545
 20
106.5669456581459
 10
1859.967369696138
 20
107.224471066698
 10
1859.2257657294
 20
108.018740404517
 10
1858.57981174287
 20
108.934294122408
 10
1858.04208049616
 20
109.9533120086809
 10
1857.6230383163
 20
111.055960039295
 10
1857.33084138268
 20
112.220776424578
 10
1857.17117697625
 20
113.425089338548
 10
1857.14715278305
 20
114.6454582002218
 10
1857.259236406689
 20
115.858129917856
 10
1857.50524626691
 20
117.0395012158589
 10
1857.880394061639
 20
118.1665780457059
 10
1858.37737796575
 20
119.2174231389339
 10
1858.98652475288
 20
120.171582991124
 10
1859.695978073699
 20
121.0104859660919
 10
1860.49192922631
 20
121.717803771669
 10
1861.35888592692
 20
122.2797692713309
 10
1862.279973849489
 20
122.6854444458538
 10
1863.23726506533
 20
122.9269332894139
 10
1864.21212698983
 20
122.999535496362
 10
1865.18558504451
 20
122.9018379473209
 10
1866.138691975639
 20
122.6357422139559
 10
1867.05289664094
 20
122.2064275470369
 10
1867.910405086499
 20
121.622250068216
 10
1868.694526885819
 20
120.894580127628
 10
1869.39
 20
120.0375809929539
 10
1869.39
 20
124.8588111963589
 10
1868.15817603983
 20
125.5675242732629
 10
1866.85759997358
 20
126.0825913720409
 10
1865.51052501831
 20
126.3951995518288
 10
1864.14
 20
126.5
 10
1862.769474981689
 20
126.3951995518288
 10
1861.422400026419
 20
126.0825913720409
 10
1860.121823960168
 20
125.5675242732629
 10
1858.89
 20
124.8588111963589
 10
1857.74800499541
 20
123.968578418568
 10
1856.71537879754
 20
122.912058069535
 10
1855.809789926939
 20
121.7073275053569
 10
1855.04673326026
 20
120.375
 10
1854.439264908629
 20
118.9378720464719
 10
1853.99777882397
 20
117.4205333025059
 10
1853.72982895558
 20
115.8489458546959
 10
1853.64
 20
114.25
 10
1853.72982895558
 20
112.6510541453049
 10
1853.99777882397
 20
111.0794666974939
 10
1854.439264908629
 20
109.5621279535279
 10
1855.04673326026
 20
108.125
 10
1855.809789926939
 20
106.7926724946429
 10
1856.71537879754
 20
105.5879419304649
 10
1857.74800499541
 20
104.5314215814318
 10
1858.89
 20
103.6411888036409
 10
1860.121823960168
 20
102.9324757267369
 10
1861.422400026419
 20
102.4174086279589
 10
1862.769474981689
 20
102.104800448171
 10
1864.14
 20
102.0
 10
1865.51052501831
 20
102.104800448171
 10
1866.85759997358
 20
102.4174086279589
 10
1868.15817603983
 20
102.9324757267369
 10
1869.39
 20
103.6411888036409
 10
1869.39
 20
103.6411888036409
  0
LWPOLYLINE
  5
3415
102
{ACAD_REACTORS
330
347A
102
}
330
3043
100
AcDbEntity
  8
WAKU
  6
Continuous
 62
     7
100
AcDbPolyline
 90
       46
 70
     0
 43
0.0
 10
1932.25
 20
114.25
 10
1932.19890736089
 20
115.4677646334009
 10
1932.04662390368
 20
116.6618268633989
 10
1931.79611365262
 20
117.8089456269129
 10
1931.45225250482
 20
118.8867935620409
 10
1931.02173332638
 20
119.8743915847568
 10
1930.512935683379
 20
120.7525172229269
 10
1929.935762743219
 20
121.504078759857
 10
1929.301448520639
 20
122.114447905118
 10
1928.62233922047
 20
122.571744517583
 10
1927.911652932749
 20
122.8670678388569
 10
1927.183222357689
 20
122.9946697364169
 10
1926.45122556785
 20
122.9520665844719
 10
1925.729910048099
 20
122.740087604915
 10
1925.03331538457
 20
122.3628587274589
 10
1924.375
 20
121.8277222831138
 10
1923.767777254538
 20
121.145094094059
 10
1923.223466048219
 20
120.328260741516
 10
1922.752660779529
 20
119.3931209575589
 10
1922.36452513749
 20
118.357876174377
 10
1922.066613740869
 20
117.2426762540998
 10
1921.864725096148
 20
116.0692272946549
 10
1921.762788736138
 20
114.8603691452608
 10
1921.762788736138
 20
113.6396308547388
 10
1921.864725096148
 20
112.430772705345
 10
1922.066613740869
 20
111.2573237458999
 10
1922.36452513749
 20
110.142123825624
 10
1922.752660779529
 20
109.106879042441
 10
1923.223466048219
 20
108.171739258484
 10
1923.767777254538
 20
107.3549059059409
 10
1924.375
 20
106.6722777168859
 10
1925.03331538457
 20
106.137141272541
 10
1925.729910048099
 20
105.7599123950849
 10
1926.45122556785
 20
105.5479334155279
 10
1927.183222357689
 20
105.5053302635828
 10
1927.911652932749
 20
105.632932161143
 10
1928.62233922047
 20
105.9282554824169
 10
1929.301448520639
 20
106.3855520948819
 10
1929.935762743219
 20
106.9959212401429
 10
1930.512935683379
 20
107.747482777073
 10
1931.02173332638
 20
108.625608415243
 10
1931.45225250482
 20
109.6132064379599
 10
1931.79611365262
 20
110.6910543730869
 10
1932.04662390368
 20
111.838173136601
 10
1932.19890736089
 20
113.032235366599
 10
1932.25
 20
114.25
  0
LWPOLYLINE
  5
3416
102
{ACAD_REACTORS
330
347A
102
}
330
3043
100
AcDbEntity
  8
WAKU
  6
Continuous
 62
     7
100
AcDbPolyline
 90
       49
 70
     0
 43
0.0
 10
1927.0
 20
126.5
 10
1925.85789581807
 20
126.3951995518288
 10
1924.73533335535
 20
126.0825913720409
 10
1923.65151996681
 20
125.5675242732629
 10
1922.625
 20
124.8588111963589
 10
1921.67333749617
 20
123.968578418568
 10
1920.81281566462
 20
122.912058069535
 10
1920.05815827245
 20
121.7073275053569
 10
1919.42227771689
 20
120.375
 10
1918.91605409053
 20
118.9378720464719
 10
1918.54814901997
 20
117.4205333025059
 10
1918.324857462978
 20
115.8489458546959
 10
1918.25
 20
114.25
 10
1918.324857462978
 20
112.6510541453038
 10
1918.54814901997
 20
111.0794666974939
 10
1918.91605409053
 20
109.5621279535279
 10
1919.42227771689
 20
108.125
 10
1920.05815827245
 20
106.7926724946429
 10
1920.81281566462
 20
105.5879419304649
 10
1921.67333749617
 20
104.5314215814318
 10
1922.625
 20
103.6411888036409
 10
1923.65151996681
 20
102.9324757267369
 10
1924.73533335535
 20
102.4174086279589
 10
1925.85789581807
 20
102.104800448171
 10
1927.0
 20
102.0
 10
1928.142104181929
 20
102.104800448171
 10
1929.264666644649
 20
102.4174086279589
 10
1930.348480033189
 20
102.9324757267369
 10
1931.375
 20
103.6411888036409
 10
1932.326662503829
 20
104.5314215814318
 10
1933.18718433538
 20
105.5879419304649
 10
1933.94184172755
 20
106.7926724946429
 10
1934.577722283109
 20
108.125
 10
1935.08394590947
 20
109.5621279535279
 10
1935.45185098003
 20
111.0794666974939
 10
1935.67514253702
 20
112.6510541453038
 10
1935.75
 20
114.25
 10
1935.67514253702
 20
115.8489458546959
 10
1935.45185098003
 20
117.4205333025059
 10
1935.08394590947
 20
118.9378720464719
 10
1934.577722283109
 20
120.375
 10
1933.94184172755
 20
121.7073275053569
 10
1933.18718433538
 20
122.912058069535
 10
1932.326662503829
 20
123.968578418568
 10
1931.375
 20
124.8588111963589
 10
1930.348480033189
 20
125.5675242732629
 10
1929.264666644649
 20
126.0825913720409
 10
1928.142104181929
 20
126.3951995518288
 10
1927.0
 20
126.5
  0
LWPOLYLINE
  5
3417
102
{ACAD_REACTORS
330
347A
102
}
330
3043
100
AcDbEntity
  8
WAKU
  6
Continuous
 62
     7
100
AcDbPolyline
 90
       11
 70
     0
 43
0.0
 10
1937.5
 20
102.0
 10
1941.0
 20
102.0
 10
1941.0
 20
119.5
 10
1951.5
 20
102.0
 10
1955.0
 20
102.0
 10
1955.0
 20
126.5
 10
1951.5
 20
126.5
 10
1951.5
 20
109.0
 10
1941.0
 20
126.5
 10
1937.5
 20
126.5
 10
1937.5
 20
102.0
  0
LWPOLYLINE
  5
3418
102
{ACAD_REACTORS
330
347A
102
}
330
3043
100
AcDbEntity
  8
WAKU
  6
Continuous
 62
     7
100
AcDbPolyline
 90
        5
 70
     0
 43
0.0
 10
1913.0
 20
126.5
 10
1913.0
 20
102.0
 10
1916.5
 20
102.0
 10
1916.5
 20
126.5
 10
1913.0
 20
126.5
  0
LWPOLYLINE
  5
3419
102
{ACAD_REACTORS
330
347A
102
}
330
3043
100
AcDbEntity
  8
WAKU
  6
Continuous
 62
     7
100
AcDbPolyline
 90
        7
 70
     0
 43
0.0
 10
1902.5
 20
126.5
 10
1902.5
 20
105.4999999999999
 10
1909.499999999999
 20
105.4999999999999
 10
1909.499999999999
 20
102.0
 10
1899.0
 20
102.0
 10
1899.0
 20
126.5
 10
1902.5
 20
126.5
  0
LWPOLYLINE
  5
341A
102
{ACAD_REACTORS
330
347A
102
}
330
3043
100
AcDbEntity
  8
WAKU
  6
Continuous
 62
     7
100
AcDbPolyline
 90
       13
 70
     0
 43
0.0
 10
1888.5
 20
102.0
 10
1874.5
 20
102.0
 10
1874.5
 20
126.5
 10
1888.5
 20
126.5
 10
1888.5
 20
123.0
 10
1878.0
 20
123.0
 10
1878.0
 20
116.0
 10
1888.5
 20
116.0
 10
1888.5
 20
112.5
 10
1878.0
 20
112.5
 10
1878.0
 20
105.4999999999999
 10
1888.5
 20
105.4999999999999
 10
1888.5
 20
102.0
  0
POINT
  5
341B
330
3043
100
AcDbEntity
  8
TEN
  6
Continuous
 62
     4
100
AcDbPoint
 10
1652.2
 20
77.30000000000003
 30
0.0
  0
POINT
  5
341C
330
3043
100
AcDbEntity
  8
TEN
  6
Continuous
 62
     4
100
AcDbPoint
 10
1710.0
 20
77.0
 30
0.0
  0
POINT
  5
341D
330
3043
100
AcDbEntity
  8
TEN
  6
Continuous
 62
     4
100
AcDbPoint
 10
1767.8
 20
76.7
 30
0.0
  0
CIRCLE
  5
341E
330
3043
100
AcDbEntity
  8
WAKU
  6
Continuous
 62
     2
100
AcDbCircle
 10
1740.0
 20
69.5
 30
0.0
 40
3.0
  0
CIRCLE
  5
341F
330
3043
100
AcDbEntity
  8
WAKU
  6
Continuous
 62
     2
100
AcDbCircle
 10
1680.0
 20
69.5
 30
0.0
 40
3.0
  0
POINT
  5
3420
330
3043
100
AcDbEntity
  8
TEN
  6
Continuous
 62
     4
100
AcDbPoint
 10
3459.0
 20
104.0
 30
0.0
  0
POINT
  5
3421
330
3043
100
AcDbEntity
  8
TEN
  6
Continuous
 62
     4
100
AcDbPoint
 10
1510.0
 20
83.0
 30
0.0
  0
POINT
  5
3422
330
3043
100
AcDbEntity
  8
TEN
  6
Continuous
 62
     4
100
AcDbPoint
 10
1515.0
 20
194.0
 30
0.0
  0
POINT
  5
3423
330
3043
100
AcDbEntity
  8
TEN
  6
Continuous
 62
     4
100
AcDbPoint
 10
1738.0
 20
243.0
 30
0.0
  0
POINT
  5
3424
330
3043
100
AcDbEntity
  8
TEN
  6
Continuous
 62
     4
100
AcDbPoint
 10
1734.0
 20
131.0
 30
0.0
  0
POINT
  5
3425
330
3043
100
AcDbEntity
  8
TEN
  6
Continuous
 62
     4
100
AcDbPoint
 10
2839.0
 20
99.0
 30
0.0
  0
POINT
  5
3426
330
3043
100
AcDbEntity
  8
TEN
  6
Continuous
 62
     4
100
AcDbPoint
 10
3074.0
 20
211.0
 30
0.0
  0
POINT
  5
3427
330
3043
100
AcDbEntity
  8
TEN
  6
Continuous
 62
     4
100
AcDbPoint
 10
3220.0
 20
103.0
 30
0.0
  0
POINT
  5
3428
330
3043
100
AcDbEntity
  8
TEN
  6
Continuous
 62
     4
100
AcDbPoint
 10
3648.0
 20
103.0
 30
0.0
  0
POINT
  5
3429
330
3043
100
AcDbEntity
  8
TEN
  6
Continuous
 62
     4
100
AcDbPoint
 10
3647.0
 20
215.0
 30
0.0
  0
TEXT
  5
342A
330
3043
100
AcDbEntity
  8
WAKU
  6
Continuous
 62
     1
100
AcDbText
 10
3859.0
 20
2832.0
 30
0.0
 40
25.0
  1
８
 41
0.84
  7
EXCADSTD
100
AcDbText
  0
TEXT
  5
342C
330
3043
100
AcDbEntity
  8
WAKU
  6
Continuous
 62
     1
100
AcDbText
 10
3392.0
 20
2837.0
 30
0.0
 40
25.0
  1
７
 41
0.84
  7
EXCADSTD
100
AcDbText
  0
TEXT
  5
342D
330
3043
100
AcDbEntity
  8
WAKU
  6
Continuous
 62
     1
100
AcDbText
 10
2887.0
 20
2837.0
 30
0.0
 40
25.0
  1
６
 41
0.84
  7
EXCADSTD
100
AcDbText
  0
TEXT
  5
342E
330
3043
100
AcDbEntity
  8
WAKU
  6
Continuous
 62
     1
100
AcDbText
 10
2376.0
 20
2837.0
 30
0.0
 40
25.0
  1
５
 41
0.84
  7
EXCADSTD
100
AcDbText
  0
TEXT
  5
342F
330
3043
100
AcDbEntity
  8
WAKU
  6
Continuous
 62
     1
100
AcDbText
 10
1890.0
 20
2837.0
 30
0.0
 40
25.0
  1
４
 41
0.84
  7
EXCADSTD
100
AcDbText
  0
TEXT
  5
3430
330
3043
100
AcDbEntity
  8
WAKU
  6
Continuous
 62
     1
100
AcDbText
 10
1375.0
 20
2837.0
 30
0.0
 40
25.0
  1
３
 41
0.84
  7
EXCADSTD
100
AcDbText
  0
TEXT
  5
3431
330
3043
100
AcDbEntity
  8
WAKU
  6
Continuous
 62
     1
100
AcDbText
 10
879.0
 20
2837.0
 30
0.0
 40
25.0
  1
２
 41
0.84
  7
EXCADSTD
100
AcDbText
  0
TEXT
  5
3432
330
3043
100
AcDbEntity
  8
WAKU
  6
Continuous
 62
     1
100
AcDbText
 10
378.0
 20
2837.0
 30
0.0
 40
25.0
  1
１
 41
0.84
  7
EXCADSTD
100
AcDbText
  0
TEXT
  5
3433
330
3043
100
AcDbEntity
  8
WAKU
  6
Continuous
 62
     1
100
AcDbText
 10
123.0
 20
520.0
 30
0.0
 40
25.0
  1
Ｅ
 41
0.84
  7
EXCADSTD
100
AcDbText
  0
TEXT
  5
3434
330
3043
100
AcDbEntity
  8
WAKU
  6
Continuous
 62
     1
100
AcDbText
 10
118.0
 20
1025.0
 30
0.0
 40
25.0
  1
Ｄ
 41
0.84
  7
EXCADSTD
100
AcDbText
  0
TEXT
  5
3435
330
3043
100
AcDbEntity
  8
WAKU
  6
Continuous
 62
     1
100
AcDbText
 10
123.0
 20
1531.0
 30
0.0
 40
25.0
  1
Ｃ
 41
0.84
  7
EXCADSTD
100
AcDbText
  0
TEXT
  5
3436
330
3043
100
AcDbEntity
  8
WAKU
  6
Continuous
 62
     1
100
AcDbText
 10
118.0
 20
2027.0
 30
0.0
 40
25.0
  1
Ｂ
 41
0.84
  7
EXCADSTD
100
AcDbText
  0
TEXT
  5
3437
330
3043
100
AcDbEntity
  8
WAKU
  6
Continuous
 62
     1
100
AcDbText
 10
118.0
 20
2527.0
 30
0.0
 40
25.0
  1
Ａ
 41
0.84
  7
EXCADSTD
100
AcDbText
  0
TEXT
  5
3438
330
3043
100
AcDbEntity
  8
WAKU
  6
Continuous
 62
     2
100
AcDbText
 10
1055.0
 20
170.0
 30
0.0
 40
30.0
  1
日塗工・マンセル
 41
0.84
  7
EXCADSTD
100
AcDbText
  0
TEXT
  5
3439
330
3043
100
AcDbEntity
  8
WAKU
  6
Continuous
 62
     2
100
AcDbText
 10
1056.0
 20
117.0
 30
0.0
 40
30.0
  1
外面
 41
0.84
  7
EXCADSTD
100
AcDbText
  0
LINE
  5
343A
330
3043
100
AcDbEntity
  8
WAKU
  6
DOT
 62
     3
100
AcDbLine
 10
210.0
 20
110.0
 30
0.0
 11
1401.0
 21
110.0
 31
0.0
  0
LINE
  5
343B
330
3043
100
AcDbEntity
  8
WAKU
  6
DOT
 62
     3
100
AcDbLine
 10
210.0
 20
210.0
 30
0.0
 11
1050.0
 21
210.0
 31
0.0
  0
LINE
  5
343C
330
3043
100
AcDbEntity
  8
WAKU
  6
Continuous
 62
     1
100
AcDbLine
 10
150.0
 20
320.0
 30
0.0
 11
170.0
 21
320.0
 31
0.0
  0
LINE
  5
343D
330
3043
100
AcDbEntity
  8
WAKU
  6
Continuous
 62
     1
100
AcDbLine
 10
150.0
 20
820.0
 30
0.0
 11
170.0
 21
820.0
 31
0.0
  0
LINE
  5
343E
330
3043
100
AcDbEntity
  8
WAKU
  6
Continuous
 62
     1
100
AcDbLine
 10
150.0
 20
1320.0
 30
0.0
 11
170.0
 21
1320.0
 31
0.0
  0
LINE
  5
343F
330
3043
100
AcDbEntity
  8
WAKU
  6
Continuous
 62
     1
100
AcDbLine
 10
150.0
 20
1820.0
 30
0.0
 11
170.0
 21
1820.0
 31
0.0
  0
LINE
  5
3440
330
3043
100
AcDbEntity
  8
WAKU
  6
Continuous
 62
     1
100
AcDbLine
 10
150.0
 20
2320.0
 30
0.0
 11
170.0
 21
2320.0
 31
0.0
  0
LINE
  5
3441
330
3043
100
AcDbEntity
  8
WAKU
  6
Continuous
 62
     1
100
AcDbLine
 10
3650.0
 20
2820.0
 30
0.0
 11
3650.0
 21
2800.0
 31
0.0
  0
LINE
  5
3442
330
3043
100
AcDbEntity
  8
WAKU
  6
Continuous
 62
     1
100
AcDbLine
 10
3150.0
 20
2820.0
 30
0.0
 11
3150.0
 21
2800.0
 31
0.0
  0
LINE
  5
3443
330
3043
100
AcDbEntity
  8
WAKU
  6
Continuous
 62
     1
100
AcDbLine
 10
2650.0
 20
2820.0
 30
0.0
 11
2650.0
 21
2800.0
 31
0.0
  0
LINE
  5
3444
330
3043
100
AcDbEntity
  8
WAKU
  6
Continuous
 62
     1
100
AcDbLine
 10
2150.0
 20
2820.0
 30
0.0
 11
2150.0
 21
2800.0
 31
0.0
  0
LINE
  5
3445
330
3043
100
AcDbEntity
  8
WAKU
  6
Continuous
 62
     1
100
AcDbLine
 10
1650.0
 20
2820.0
 30
0.0
 11
1650.0
 21
2800.0
 31
0.0
  0
LINE
  5
3446
330
3043
100
AcDbEntity
  8
WAKU
  6
Continuous
 62
     1
100
AcDbLine
 10
1150.0
 20
2820.0
 30
0.0
 11
1150.0
 21
2800.0
 31
0.0
  0
LINE
  5
3447
330
3043
100
AcDbEntity
  8
WAKU
  6
Continuous
 62
     1
100
AcDbLine
 10
650.0
 20
2820.0
 30
0.0
 11
650.0
 21
2800.0
 31
0.0
  0
POINT
  5
3448
330
3043
100
AcDbEntity
  8
TEN
  6
Continuous
 62
     4
100
AcDbPoint
 10
1820.172203531769
 20
221.000000000001
 30
0.0
  0
TEXT
  5
3449
330
3043
100
AcDbEntity
  8
WAKU
  6
Continuous
 62
     2
100
AcDbText
 10
3084.0
 20
89.0
 30
0.0
 40
30.0
  1
記号
 41
0.98
  7
EXCADSTD
100
AcDbText
  0
LINE
  5
344A
330
3043
100
AcDbEntity
  8
WAKU
  6
Continuous
 62
     3
100
AcDbLine
 10
3074.999968
 20
51.0
 30
0.0
 11
3074.999968
 21
160.4999999999999
 31
0.0
  0
LINE
  5
344B
330
3043
100
AcDbEntity
  8
WAKU
  6
Continuous
 62
     5
100
AcDbLine
 10
1918.89537202802
 20
179.7759999999999
 30
0.0
 11
1920.05588952606
 21
180.9365174980419
 31
0.0
  0
CIRCLE
  5
344C
330
3043
100
AcDbEntity
  8
WAKU
  6
Continuous
 62
     2
100
AcDbCircle
 10
1740.0
 20
179.4999999999999
 30
0.0
 40
3.0
  0
CIRCLE
  5
344D
330
3043
100
AcDbEntity
  8
WAKU
  6
Continuous
 62
     2
100
AcDbCircle
 10
1680.0
 20
179.4999999999999
 30
0.0
 40
3.0
  0
TEXT
  5
344E
330
3043
100
AcDbEntity
  8
WAKU
  6
Continuous
 62
     2
100
AcDbText
 10
177.991667
 20
249.0
 30
0.0
 40
31.5
  1
変更記事
 41
0.8
  7
EXCADVERT
100
AcDbText
  0
LINE
  5
3450
330
3043
100
AcDbEntity
  8
WAKU
  6
Continuous
 62
     3
100
AcDbLine
 10
4032.0
 20
146.5
 30
0.0
 11
3976.0
 21
58.0
 31
0.0
  0
LINE
  5
3451
330
3043
100
AcDbEntity
  8
WAKU
  6
Continuous
 62
     3
100
AcDbLine
 10
2549.999968
 20
160.4999999999999
 30
0.0
 11
4050.0
 21
160.4999999999999
 31
0.0
  0
LINE
  5
3452
330
3043
100
AcDbEntity
  8
WAKU
  6
DOT
 62
     3
100
AcDbLine
 10
1671.0
 20
213.75
 30
0.0
 11
1799.999975
 21
213.75
 31
0.0
  0
LINE
  5
3453
330
3043
100
AcDbEntity
  8
WAKU
  6
DOT
 62
     3
100
AcDbLine
 10
1671.0
 20
103.75
 30
0.0
 11
1799.999975
 21
103.75
 31
0.0
  0
LINE
  5
3454
330
3043
100
AcDbEntity
  8
WAKU
  6
Continuous
 62
     3
100
AcDbLine
 10
1401.0
 20
160.0
 30
0.0
 11
1799.999975
 21
160.0
 31
0.0
  0
LINE
  5
3455
330
3043
100
AcDbEntity
  8
WAKU
  6
DOT
 62
     3
100
AcDbLine
 10
210.0
 20
50.0
 30
0.0
 11
210.0
 21
270.0
 31
0.0
  0
LINE
  5
3456
330
3043
100
AcDbEntity
  8
WAKU
  6
DOT
 62
     3
100
AcDbLine
 10
210.0
 20
160.0
 30
0.0
 11
1401.0
 21
160.0
 31
0.0
  0
LINE
  5
3457
330
3043
100
AcDbEntity
  8
WAKU
  6
Continuous
 62
    11
100
AcDbLine
 10
150.0
 20
270.0
 30
0.0
 11
4050.0
 21
270.0
 31
0.0
  0
LINE
  5
3458
330
3043
100
AcDbEntity
  8
WAKU
  6
Continuous
 62
     3
100
AcDbLine
 10
1050.0
 20
270.0
 30
0.0
 11
1050.0
 21
50.0
 31
0.0
  0
LINE
  5
3459
330
3043
100
AcDbEntity
  8
WAKU
  6
Continuous
 62
     3
100
AcDbLine
 10
1400.0
 20
270.0
 30
0.0
 11
1400.0
 21
50.0
 31
0.0
  0
LINE
  5
345A
330
3043
100
AcDbEntity
  8
WAKU
  6
Continuous
 62
     3
100
AcDbLine
 10
1600.0
 20
270.0
 30
0.0
 11
1600.0
 21
50.0
 31
0.0
  0
LINE
  5
345B
330
3043
100
AcDbEntity
  8
WAKU
  6
Continuous
 62
     3
100
AcDbLine
 10
1799.999975
 20
270.0
 30
0.0
 11
1799.999975
 21
49.90000000000009
 31
0.0
  0
LINE
  5
345C
330
3043
100
AcDbEntity
  8
WAKU
  6
Continuous
 62
     3
100
AcDbLine
 10
2549.999968
 20
270.0
 30
0.0
 11
2549.999968
 21
50.0
 31
0.0
  0
TEXT
  5
345D
330
3043
100
AcDbEntity
  8
WAKU
  6
Continuous
 62
     2
100
AcDbText
 10
3310.0
 20
91.0
 30
0.0
 40
30.0
  1
製作数
 41
0.933333333333333
  7
EXCADSTD
100
AcDbText
  0
LINE
  5
345E
330
3043
100
AcDbEntity
  8
WAKU
  6
Continuous
 62
     3
100
AcDbLine
 10
3550.0
 20
160.4999999999999
 30
0.0
 11
3550.0
 21
50.0
 31
0.0
  0
LINE
  5
345F
330
3043
100
AcDbEntity
  8
WAKU
  6
Continuous
 62
     3
100
AcDbLine
 10
3300.0
 20
160.4999999999999
 30
0.0
 11
3300.0
 21
51.0
 31
0.0
  0
LINE
  5
3460
330
3043
100
AcDbEntity
  8
WAKU
  6
Continuous
 62
     3
100
AcDbLine
 10
3550.0
 20
270.0
 30
0.0
 11
3550.0
 21
160.4999999999999
 31
0.0
  0
TEXT
  5
3461
330
3043
100
AcDbEntity
  8
WAKU
  6
Continuous
 62
    11
100
AcDbText
 10
2002.0
 20
123.0
 30
0.0
 40
50.0
  1
エ－スライオン株式会社
 41
0.7636363636363642
  7
EXCADSTD
100
AcDbText
  0
TEXT
  5
3462
330
3043
100
AcDbEntity
  8
WAKU
  6
Continuous
 62
     2
100
AcDbText
 10
3559.0
 20
90.0
 30
0.0
 40
30.0
  1
図番
 41
0.98
  7
EXCADSTD
100
AcDbText
  0
TEXT
  5
3463
330
3043
100
AcDbEntity
  8
WAKU
  6
Continuous
 62
     2
100
AcDbText
 10
3504.0
 20
89.0
 30
0.0
 40
30.0
  1
面
 41
1.12
  7
EXCADSTD
100
AcDbText
  0
TEXT
  5
3464
330
3043
100
AcDbEntity
  8
WAKU
  6
Continuous
 62
     2
100
AcDbText
 10
3553.000031999998
 20
197.0000000000009
 30
0.0
 40
30.0
  1
工番
 41
0.98
  7
EXCADSTD
100
AcDbText
  0
TEXT
  5
3465
330
3043
100
AcDbEntity
  8
WAKU
  6
Continuous
 62
     2
100
AcDbText
 10
2563.0
 20
91.0
 30
0.0
 40
30.0
  1
品名
 41
0.98
  7
EXCADSTD
100
AcDbText
  0
TEXT
  5
3466
330
3043
100
AcDbEntity
  8
WAKU
  6
Continuous
 62
     2
100
AcDbText
 10
3500.000031999998
 20
197.0000000000009
 30
0.0
 40
30.0
  1
殿
 41
1.12
  7
EXCADSTD
100
AcDbText
  0
TEXT
  5
3467
330
3043
100
AcDbEntity
  8
WAKU
  6
Continuous
 62
     2
100
AcDbText
 10
2560.0
 20
200.0
 30
0.0
 40
30.0
  1
納入先
 41
0.933333333333333
  7
EXCADSTD
100
AcDbText
  0
TEXT
  5
3468
330
3043
100
AcDbEntity
  8
WAKU
  6
Continuous
 62
     2
100
AcDbText
 10
1607.0
 20
117.5
 30
0.0
 40
30.0
  1
検図
 41
0.84
  7
EXCADSTD
100
AcDbText
  0
TEXT
  5
3469
330
3043
100
AcDbEntity
  8
WAKU
  6
Continuous
 62
     2
100
AcDbText
 10
1607.0
 20
231.0
 30
0.0
 40
30.0
  1
製図
 41
0.84
  7
EXCADSTD
100
AcDbText
  0
TEXT
  5
346A
330
3043
100
AcDbEntity
  8
WAKU
  6
Continuous
 62
     2
100
AcDbText
 10
1406.0
 20
117.5
 30
0.0
 40
30.0
  1
縮尺
 41
0.84
  7
EXCADSTD
100
AcDbText
  0
TEXT
  5
346B
330
3043
100
AcDbEntity
  8
WAKU
  6
Continuous
 62
     2
100
AcDbText
 10
1408.0
 20
231.0
 30
0.0
 40
30.0
  1
形式
 41
0.84
  7
EXCADSTD
100
AcDbText
  0
TEXT
  5
346C
330
3043
100
AcDbEntity
  8
WAKU
  6
Continuous
 62
     2
100
AcDbText
 10
1057.0
 20
61.0
 30
0.0
 40
30.0
  1
内面
 41
0.84
  7
EXCADSTD
100
AcDbText
  0
TEXT
  5
346D
330
3043
100
AcDbEntity
  8
WAKU
  6
Continuous
 62
     2
100
AcDbText
 10
1055.0
 20
222.0
 30
0.0
 40
30.0
  1
塗装色（艶　　　　　　）
 41
0.84
  7
EXCADSTD
100
AcDbText
  0
LWPOLYLINE
  5
346E
330
3043
100
AcDbEntity
  8
WAKU
  6
Continuous
 62
    11
100
AcDbPolyline
 90
        5
 70
     0
 43
0.0
 10
150.0
 20
50.0
 10
4050.0
 20
50.0
 10
4050.0
 20
2820.0
 10
150.0
 20
2820.0
 10
150.0
 20
50.0
  0
TEXT
  5
346F
330
3043
100
AcDbEntity
  8
WAKU-MOJI
  6
Continuous
100
AcDbText
 10
1709.066666666666
 20
223.0
 30
0.0
 40
40.0
  1
樋田
 41
0.7
  7
M7
 72
     1
 11
1738.0
 21
243.0
 31
0.0
100
AcDbText
 73
     2
  0
LWPOLYLINE
  5
3470
102
{ACAD_REACTORS
330
3471
102
}
330
3043
100
AcDbEntity
  8
WAKU
  6
Continuous
 62
     1
100
AcDbPolyline
 90
        6
 70
     1
 43
0.0
 10
1876.16089539752
 20
150.592
 10
1904.538815828732
 20
150.592
 10
1896.114120700712
 20
136.0
 10
1849.999999999999
 20
136.0
 10
1873.057060350359
 20
175.9359999999999
 10
1890.793260619863
 20
175.9359999999999
  0
HATCH
  5
3471
330
3043
100
AcDbEntity
  8
WAKU-MOJI
  6
Continuous
100
AcDbHatch
 10
0.0
 20
0.0
 30
0.0
210
0.0
220
0.0
230
1.0
  2
SOLID
 70
     1
 71
     1
 91
        1
 92
        1
 93
        6
 72
     1
 10
1876.16089539752
 20
150.592
 11
1904.538815828732
 21
150.592
 72
     1
 10
1904.538815828732
 20
150.592
 11
1896.114120700712
 21
136.0
 72
     1
 10
1896.114120700712
 20
136.0
 11
1849.999999999999
 21
136.0
 72
     1
 10
1849.999999999999
 20
136.0
 11
1873.057060350359
 21
175.9359999999999
 72
     1
 10
1873.057060350359
 20
175.9359999999999
 11
1890.793260619863
 21
175.9359999999999
 72
     1
 10
1890.793260619863
 20
175.9359999999999
 11
1876.16089539752
 21
150.592
 97
        1
330
3470
 75
     0
 76
     1
 98
        1
 10
0.0
 20
0.0
  0
LWPOLYLINE
  5
3472
102
{ACAD_REACTORS
330
3477
102
}
330
3043
100
AcDbEntity
  8
WAKU
  6
Continuous
 62
     5
100
AcDbPolyline
 90
        4
 70
     1
 43
0.0
 10
1885.69691908368
 20
194.368
 10
1912.301219487945
 20
194.368
 10
1907.867169420561
 20
202.048
 10
1881.262869016304
 20
202.048
  0
LWPOLYLINE
  5
3473
102
{ACAD_REACTORS
330
3477
102
}
330
3043
100
AcDbEntity
  8
WAKU
  6
Continuous
 62
     5
100
AcDbPolyline
 90
        4
 70
     1
 43
0.0
 10
1894.106923175614
 20
179.8014456209069
 10
1920.711223579879
 20
179.8014456209069
 10
1916.277173512495
 20
187.4814456209069
 10
1889.672873108239
 20
187.4814456209069
  0
LWPOLYLINE
  5
3474
102
{ACAD_REACTORS
330
3477
102
}
330
3043
100
AcDbEntity
  8
WAKU
  6
Continuous
 62
     5
100
AcDbPolyline
 90
        4
 70
     1
 43
0.0
 10
1902.581517629863
 20
165.224799936228
 10
1929.185818034128
 20
165.224799936228
 10
1924.751767966744
 20
172.9047999362279
 10
1898.147467562489
 20
172.9047999362279
  0
LWPOLYLINE
  5
3475
102
{ACAD_REACTORS
330
3477
102
}
330
3043
100
AcDbEntity
  8
WAKU
  6
Continuous
 62
     5
100
AcDbPolyline
 90
        4
 70
     1
 43
0.0
 10
1919.480960321884
 20
135.9541065740468
 10
1946.085260726149
 20
135.9541065740468
 10
1941.651210658765
 20
143.6341065740469
 10
1915.04691025451
 20
143.6341065740469
  0
LWPOLYLINE
  5
3476
102
{ACAD_REACTORS
330
3477
102
}
330
3043
100
AcDbEntity
  8
WAKU
  6
Continuous
 62
     5
100
AcDbPolyline
 90
        4
 70
     1
 43
0.0
 10
1910.954438975873
 20
150.722474757159
 10
1937.558739380138
 20
150.722474757159
 10
1933.124689312755
 20
158.402474757159
 10
1906.5203889085
 20
158.402474757159
  0
HATCH
  5
3477
330
3043
100
AcDbEntity
  8
WAKU-MOJI
  6
Continuous
100
AcDbHatch
 10
0.0
 20
0.0
 30
0.0
210
0.0
220
0.0
230
1.0
  2
SOLID
 70
     1
 71
     1
 91
        5
 92
        1
 93
        4
 72
     1
 10
1919.480960321884
 20
135.9541065740468
 11
1946.085260726149
 21
135.9541065740468
 72
     1
 10
1946.085260726149
 20
135.9541065740468
 11
1941.651210658765
 21
143.6341065740469
 72
     1
 10
1941.651210658765
 20
143.6341065740469
 11
1915.04691025451
 21
143.6341065740469
 72
     1
 10
1915.04691025451
 20
143.6341065740469
 11
1919.480960321884
 21
135.9541065740468
 97
        1
330
3475
 92
        1
 93
        4
 72
     1
 10
1910.954438975873
 20
150.722474757159
 11
1937.558739380138
 21
150.722474757159
 72
     1
 10
1937.558739380138
 20
150.722474757159
 11
1933.124689312755
 21
158.402474757159
 72
     1
 10
1933.124689312755
 20
158.402474757159
 11
1906.5203889085
 21
158.402474757159
 72
     1
 10
1906.5203889085
 20
158.402474757159
 11
1910.954438975873
 21
150.722474757159
 97
        1
330
3476
 92
        1
 93
        4
 72
     1
 10
1902.581517629863
 20
165.224799936228
 11
1929.185818034128
 21
165.224799936228
 72
     1
 10
1929.185818034128
 20
165.224799936228
 11
1924.751767966744
 21
172.9047999362279
 72
     1
 10
1924.751767966744
 20
172.9047999362279
 11
1898.147467562489
 21
172.9047999362279
 72
     1
 10
1898.147467562489
 20
172.9047999362279
 11
1902.581517629863
 21
165.224799936228
 97
        1
330
3474
 92
        1
 93
        4
 72
     1
 10
1894.106923175614
 20
179.8014456209069
 11
1920.711223579879
 21
179.8014456209069
 72
     1
 10
1920.711223579879
 20
179.8014456209069
 11
1916.277173512495
 21
187.4814456209069
 72
     1
 10
1916.277173512495
 20
187.4814456209069
 11
1889.672873108239
 21
187.4814456209069
 72
     1
 10
1889.672873108239
 20
187.4814456209069
 11
1894.106923175614
 21
179.8014456209069
 97
        1
330
3473
 92
        1
 93
        4
 72
     1
 10
1885.69691908368
 20
194.368
 11
1912.301219487945
 21
194.368
 72
     1
 10
1912.301219487945
 20
194.368
 11
1907.867169420561
 21
202.048
 72
     1
 10
1907.867169420561
 20
202.048
 11
1881.262869016304
 21
202.048
 72
     1
 10
1881.262869016304
 20
202.048
 11
1885.69691908368
 21
194.368
 97
        1
330
3472
 75
     0
 76
     1
 98
        1
 10
0.0
 20
0.0
  0
LWPOLYLINE
  5
3478
102
{ACAD_REACTORS
330
3479
102
}
330
3043
100
AcDbEntity
  8
WAKU
  6
Continuous
 62
     7
100
AcDbPolyline
 90
        7
 70
     1
 43
0.0
 10
1843.0
 20
126.5
 10
1846.499999999999
 20
126.5
 10
1853.5
 20
102.0
 10
1850.0
 20
102.0
 10
1844.75
 20
120.375
 10
1839.5
 20
102.0
 10
1836.0
 20
102.0
  0
HATCH
  5
3479
330
3043
100
AcDbEntity
  8
WAKU-MOJI
  6
Continuous
100
AcDbHatch
 10
0.0
 20
0.0
 30
0.0
210
0.0
220
0.0
230
1.0
  2
SOLID
 70
     1
 71
     1
 91
        2
 92
        1
 93
       69
 72
     1
 10
1869.39
 20
108.4624190070458
 11
1868.950466641679
 21
107.893481361466
 72
     1
 10
1868.950466641679
 20
107.893481361466
 11
1868.195926382809
 21
107.118483114415
 72
     1
 10
1868.195926382809
 20
107.118483114415
 11
1867.36244213045
 21
106.4822917315619
 72
     1
 10
1867.36244213045
 20
106.4822917315619
 11
1866.466236707499
 21
105.9972899545159
 72
     1
 10
1866.466236707499
 20
105.9972899545159
 11
1865.524753733089
 21
105.6729177911879
 72
     1
 10
1865.524753733089
 20
105.6729177911879
 11
1864.55631810239
 21
105.5154887767669
 72
     1
 10
1864.55631810239
 20
105.5154887767669
 11
1863.579779313388
 21
105.5280670879479
 72
     1
 10
1863.579779313388
 20
105.5280670879479
 11
1862.61414458282
 21
105.71040790221
 72
     1
 10
1862.61414458282
 20
105.71040790221
 11
1861.6782088923
 21
106.058962163013
 72
     1
 10
1861.6782088923
 20
106.058962163013
 11
1860.79018916545
 21
106.5669456581459
 72
     1
 10
1860.79018916545
 20
106.5669456581459
 11
1859.967369696138
 21
107.224471066698
 72
     1
 10
1859.967369696138
 20
107.224471066698
 11
1859.2257657294
 21
108.018740404517
 72
     1
 10
1859.2257657294
 20
108.018740404517
 11
1858.57981174287
 21
108.934294122408
 72
     1
 10
1858.57981174287
 20
108.934294122408
 11
1858.04208049616
 21
109.9533120086809
 72
     1
 10
1858.04208049616
 20
109.9533120086809
 11
1857.6230383163
 21
111.055960039295
 72
     1
 10
1857.6230383163
 20
111.055960039295
 11
1857.33084138268
 21
112.220776424578
 72
     1
 10
1857.33084138268
 20
112.220776424578
 11
1857.17117697625
 21
113.425089338548
 72
     1
 10
1857.17117697625
 20
113.425089338548
 11
1857.14715278305
 21
114.6454582002218
 72
     1
 10
1857.14715278305
 20
114.6454582002218
 11
1857.259236406689
 21
115.858129917856
 72
     1
 10
1857.259236406689
 20
115.858129917856
 11
1857.50524626691
 21
117.0395012158589
 72
     1
 10
1857.50524626691
 20
117.0395012158589
 11
1857.880394061639
 21
118.1665780457059
 72
     1
 10
1857.880394061639
 20
118.1665780457059
 11
1858.37737796575
 21
119.2174231389339
 72
     1
 10
1858.37737796575
 20
119.2174231389339
 11
1858.98652475288
 21
120.171582991124
 72
     1
 10
1858.98652475288
 20
120.171582991124
 11
1859.695978073699
 21
121.0104859660919
 72
     1
 10
1859.695978073699
 20
121.0104859660919
 11
1860.49192922631
 21
121.717803771669
 72
     1
 10
1860.49192922631
 20
121.717803771669
 11
1861.35888592692
 21
122.2797692713309
 72
     1
 10
1861.35888592692
 20
122.2797692713309
 11
1862.279973849489
 21
122.6854444458538
 72
     1
 10
1862.279973849489
 20
122.6854444458538
 11
1863.23726506533
 21
122.9269332894139
 72
     1
 10
1863.23726506533
 20
122.9269332894139
 11
1864.21212698983
 21
122.999535496362
 72
     1
 10
1864.21212698983
 20
122.999535496362
 11
1865.18558504451
 21
122.9018379473209
 72
     1
 10
1865.18558504451
 20
122.9018379473209
 11
1866.138691975639
 21
122.6357422139559
 72
     1
 10
1866.138691975639
 20
122.6357422139559
 11
1867.05289664094
 21
122.2064275470369
 72
     1
 10
1867.05289664094
 20
122.2064275470369
 11
1867.910405086499
 21
121.622250068216
 72
     1
 10
1867.910405086499
 20
121.622250068216
 11
1868.694526885819
 21
120.894580127628
 72
     1
 10
1868.694526885819
 20
120.894580127628
 11
1869.39
 21
120.0375809929539
 72
     1
 10
1869.39
 20
120.0375809929539
 11
1869.39
 21
124.8588111963589
 72
     1
 10
1869.39
 20
124.8588111963589
 11
1868.15817603983
 21
125.5675242732629
 72
     1
 10
1868.15817603983
 20
125.5675242732629
 11
1866.85759997358
 21
126.0825913720409
 72
     1
 10
1866.85759997358
 20
126.0825913720409
 11
1865.51052501831
 21
126.3951995518288
 72
     1
 10
1865.51052501831
 20
126.3951995518288
 11
1864.14
 21
126.5
 72
     1
 10
1864.14
 20
126.5
 11
1862.769474981689
 21
126.3951995518288
 72
     1
 10
1862.769474981689
 20
126.3951995518288
 11
1861.422400026419
 21
126.0825913720409
 72
     1
 10
1861.422400026419
 20
126.0825913720409
 11
1860.121823960168
 21
125.5675242732629
 72
     1
 10
1860.121823960168
 20
125.5675242732629
 11
1858.89
 21
124.8588111963589
 72
     1
 10
1858.89
 20
124.8588111963589
 11
1857.74800499541
 21
123.968578418568
 72
     1
 10
1857.74800499541
 20
123.968578418568
 11
1856.71537879754
 21
122.912058069535
 72
     1
 10
1856.71537879754
 20
122.912058069535
 11
1855.809789926939
 21
121.7073275053569
 72
     1
 10
1855.809789926939
 20
121.7073275053569
 11
1855.04673326026
 21
120.375
 72
     1
 10
1855.04673326026
 20
120.375
 11
1854.439264908629
 21
118.9378720464719
 72
     1
 10
1854.439264908629
 20
118.9378720464719
 11
1853.99777882397
 21
117.4205333025059
 72
     1
 10
1853.99777882397
 20
117.4205333025059
 11
1853.72982895558
 21
115.8489458546959
 72
     1
 10
1853.72982895558
 20
115.8489458546959
 11
1853.64
 21
114.25
 72
     1
 10
1853.64
 20
114.25
 11
1853.72982895558
 21
112.6510541453049
 72
     1
 10
1853.72982895558
 20
112.6510541453049
 11
1853.99777882397
 21
111.0794666974939
 72
     1
 10
1853.99777882397
 20
111.0794666974939
 11
1854.439264908629
 21
109.5621279535279
 72
     1
 10
1854.439264908629
 20
109.5621279535279
 11
1855.04673326026
 21
108.125
 72
     1
 10
1855.04673326026
 20
108.125
 11
1855.809789926939
 21
106.7926724946429
 72
     1
 10
1855.809789926939
 20
106.7926724946429
 11
1856.71537879754
 21
105.5879419304649
 72
     1
 10
1856.71537879754
 20
105.5879419304649
 11
1857.74800499541
 21
104.5314215814318
 72
     1
 10
1857.74800499541
 20
104.5314215814318
 11
1858.89
 21
103.6411888036409
 72
     1
 10
1858.89
 20
103.6411888036409
 11
1860.121823960168
 21
102.9324757267369
 72
     1
 10
1860.121823960168
 20
102.9324757267369
 11
1861.422400026419
 21
102.4174086279589
 72
     1
 10
1861.422400026419
 20
102.4174086279589
 11
1862.769474981689
 21
102.104800448171
 72
     1
 10
1862.769474981689
 20
102.104800448171
 11
1864.14
 21
102.0
 72
     1
 10
1864.14
 20
102.0
 11
1865.51052501831
 21
102.104800448171
 72
     1
 10
1865.51052501831
 20
102.104800448171
 11
1866.85759997358
 21
102.4174086279589
 72
     1
 10
1866.85759997358
 20
102.4174086279589
 11
1868.15817603983
 21
102.9324757267369
 72
     1
 10
1868.15817603983
 20
102.9324757267369
 11
1869.39
 21
103.6411888036409
 72
     1
 10
1869.39
 20
103.6411888036409
 11
1869.39
 21
108.4624190070458
 97
        1
330
3414
 92
        1
 93
        7
 72
     1
 10
1843.0
 20
126.5
 11
1846.499999999999
 21
126.5
 72
     1
 10
1846.499999999999
 20
126.5
 11
1853.5
 21
102.0
 72
     1
 10
1853.5
 20
102.0
 11
1850.0
 21
102.0
 72
     1
 10
1850.0
 20
102.0
 11
1844.75
 21
120.375
 72
     1
 10
1844.75
 20
120.375
 11
1839.5
 21
102.0
 72
     1
 10
1839.5
 20
102.0
 11
1836.0
 21
102.0
 72
     1
 10
1836.0
 20
102.0
 11
1843.0
 21
126.5
 97
        1
330
3478
 75
     0
 76
     1
 98
        1
 10
0.0
 20
0.0
  0
HATCH
  5
347A
330
3043
100
AcDbEntity
  8
WAKU-MOJI
  6
Continuous
100
AcDbHatch
 10
0.0
 20
0.0
 30
0.0
210
0.0
220
0.0
230
1.0
  2
SOLID
 70
     1
 71
     1
 91
        6
 92
        1
 93
       12
 72
     1
 10
1888.5
 20
102.0
 11
1874.5
 21
102.0
 72
     1
 10
1874.5
 20
102.0
 11
1874.5
 21
126.5
 72
     1
 10
1874.5
 20
126.5
 11
1888.5
 21
126.5
 72
     1
 10
1888.5
 20
126.5
 11
1888.5
 21
123.0
 72
     1
 10
1888.5
 20
123.0
 11
1878.0
 21
123.0
 72
     1
 10
1878.0
 20
123.0
 11
1878.0
 21
116.0
 72
     1
 10
1878.0
 20
116.0
 11
1888.5
 21
116.0
 72
     1
 10
1888.5
 20
116.0
 11
1888.5
 21
112.5
 72
     1
 10
1888.5
 20
112.5
 11
1878.0
 21
112.5
 72
     1
 10
1878.0
 20
112.5
 11
1878.0
 21
105.4999999999999
 72
     1
 10
1878.0
 20
105.4999999999999
 11
1888.5
 21
105.4999999999999
 72
     1
 10
1888.5
 20
105.4999999999999
 11
1888.5
 21
102.0
 97
        1
330
341A
 92
        1
 93
        6
 72
     1
 10
1902.5
 20
126.5
 11
1902.5
 21
105.4999999999999
 72
     1
 10
1902.5
 20
105.4999999999999
 11
1909.499999999999
 21
105.4999999999999
 72
     1
 10
1909.499999999999
 20
105.4999999999999
 11
1909.499999999999
 21
102.0
 72
     1
 10
1909.499999999999
 20
102.0
 11
1899.0
 21
102.0
 72
     1
 10
1899.0
 20
102.0
 11
1899.0
 21
126.5
 72
     1
 10
1899.0
 20
126.5
 11
1902.5
 21
126.5
 97
        1
330
3419
 92
        1
 93
        4
 72
     1
 10
1913.0
 20
126.5
 11
1913.0
 21
102.0
 72
     1
 10
1913.0
 20
102.0
 11
1916.5
 21
102.0
 72
     1
 10
1916.5
 20
102.0
 11
1916.5
 21
126.5
 72
     1
 10
1916.5
 20
126.5
 11
1913.0
 21
126.5
 97
        1
330
3418
 92
        1
 93
       10
 72
     1
 10
1937.5
 20
102.0
 11
1941.0
 21
102.0
 72
     1
 10
1941.0
 20
102.0
 11
1941.0
 21
119.5
 72
     1
 10
1941.0
 20
119.5
 11
1951.5
 21
102.0
 72
     1
 10
1951.5
 20
102.0
 11
1955.0
 21
102.0
 72
     1
 10
1955.0
 20
102.0
 11
1955.0
 21
126.5
 72
     1
 10
1955.0
 20
126.5
 11
1951.5
 21
126.5
 72
     1
 10
1951.5
 20
126.5
 11
1951.5
 21
109.0
 72
     1
 10
1951.5
 20
109.0
 11
1941.0
 21
126.5
 72
     1
 10
1941.0
 20
126.5
 11
1937.5
 21
126.5
 72
     1
 10
1937.5
 20
126.5
 11
1937.5
 21
102.0
 97
        1
330
3417
 92
        1
 93
       48
 72
     1
 10
1927.0
 20
126.5
 11
1925.85789581807
 21
126.3951995518288
 72
     1
 10
1925.85789581807
 20
126.3951995518288
 11
1924.73533335535
 21
126.0825913720409
 72
     1
 10
1924.73533335535
 20
126.0825913720409
 11
1923.65151996681
 21
125.5675242732629
 72
     1
 10
1923.65151996681
 20
125.5675242732629
 11
1922.625
 21
124.8588111963589
 72
     1
 10
1922.625
 20
124.8588111963589
 11
1921.67333749617
 21
123.968578418568
 72
     1
 10
1921.67333749617
 20
123.968578418568
 11
1920.81281566462
 21
122.912058069535
 72
     1
 10
1920.81281566462
 20
122.912058069535
 11
1920.05815827245
 21
121.7073275053569
 72
     1
 10
1920.05815827245
 20
121.7073275053569
 11
1919.42227771689
 21
120.375
 72
     1
 10
1919.42227771689
 20
120.375
 11
1918.91605409053
 21
118.9378720464719
 72
     1
 10
1918.91605409053
 20
118.9378720464719
 11
1918.54814901997
 21
117.4205333025059
 72
     1
 10
1918.54814901997
 20
117.4205333025059
 11
1918.324857462978
 21
115.8489458546959
 72
     1
 10
1918.324857462978
 20
115.8489458546959
 11
1918.25
 21
114.25
 72
     1
 10
1918.25
 20
114.25
 11
1918.324857462978
 21
112.6510541453038
 72
     1
 10
1918.324857462978
 20
112.6510541453038
 11
1918.54814901997
 21
111.0794666974939
 72
     1
 10
1918.54814901997
 20
111.0794666974939
 11
1918.91605409053
 21
109.5621279535279
 72
     1
 10
1918.91605409053
 20
109.5621279535279
 11
1919.42227771689
 21
108.125
 72
     1
 10
1919.42227771689
 20
108.125
 11
1920.05815827245
 21
106.7926724946429
 72
     1
 10
1920.05815827245
 20
106.7926724946429
 11
1920.81281566462
 21
105.5879419304649
 72
     1
 10
1920.81281566462
 20
105.5879419304649
 11
1921.67333749617
 21
104.5314215814318
 72
     1
 10
1921.67333749617
 20
104.5314215814318
 11
1922.625
 21
103.6411888036409
 72
     1
 10
1922.625
 20
103.6411888036409
 11
1923.65151996681
 21
102.9324757267369
 72
     1
 10
1923.65151996681
 20
102.9324757267369
 11
1924.73533335535
 21
102.4174086279589
 72
     1
 10
1924.73533335535
 20
102.4174086279589
 11
1925.85789581807
 21
102.104800448171
 72
     1
 10
1925.85789581807
 20
102.104800448171
 11
1927.0
 21
102.0
 72
     1
 10
1927.0
 20
102.0
 11
1928.142104181929
 21
102.104800448171
 72
     1
 10
1928.142104181929
 20
102.104800448171
 11
1929.264666644649
 21
102.4174086279589
 72
     1
 10
1929.264666644649
 20
102.4174086279589
 11
1930.348480033189
 21
102.9324757267369
 72
     1
 10
1930.348480033189
 20
102.9324757267369
 11
1931.375
 21
103.6411888036409
 72
     1
 10
1931.375
 20
103.6411888036409
 11
1932.326662503829
 21
104.5314215814318
 72
     1
 10
1932.326662503829
 20
104.5314215814318
 11
1933.18718433538
 21
105.5879419304649
 72
     1
 10
1933.18718433538
 20
105.5879419304649
 11
1933.94184172755
 21
106.7926724946429
 72
     1
 10
1933.94184172755
 20
106.7926724946429
 11
1934.577722283109
 21
108.125
 72
     1
 10
1934.577722283109
 20
108.125
 11
1935.08394590947
 21
109.5621279535279
 72
     1
 10
1935.08394590947
 20
109.5621279535279
 11
1935.45185098003
 21
111.0794666974939
 72
     1
 10
1935.45185098003
 20
111.0794666974939
 11
1935.67514253702
 21
112.6510541453038
 72
     1
 10
1935.67514253702
 20
112.6510541453038
 11
1935.75
 21
114.25
 72
     1
 10
1935.75
 20
114.25
 11
1935.67514253702
 21
115.8489458546959
 72
     1
 10
1935.67514253702
 20
115.8489458546959
 11
1935.45185098003
 21
117.4205333025059
 72
     1
 10
1935.45185098003
 20
117.4205333025059
 11
1935.08394590947
 21
118.9378720464719
 72
     1
 10
1935.08394590947
 20
118.9378720464719
 11
1934.577722283109
 21
120.375
 72
     1
 10
1934.577722283109
 20
120.375
 11
1933.94184172755
 21
121.7073275053569
 72
     1
 10
1933.94184172755
 20
121.7073275053569
 11
1933.18718433538
 21
122.912058069535
 72
     1
 10
1933.18718433538
 20
122.912058069535
 11
1932.326662503829
 21
123.968578418568
 72
     1
 10
1932.326662503829
 20
123.968578418568
 11
1931.375
 21
124.8588111963589
 72
     1
 10
1931.375
 20
124.8588111963589
 11
1930.348480033189
 21
125.5675242732629
 72
     1
 10
1930.348480033189
 20
125.5675242732629
 11
1929.264666644649
 21
126.0825913720409
 72
     1
 10
1929.264666644649
 20
126.0825913720409
 11
1928.142104181929
 21
126.3951995518288
 72
     1
 10
1928.142104181929
 20
126.3951995518288
 11
1927.0
 21
126.5
 97
        1
330
3416
 92
       16
 93
       45
 72
     1
 10
1932.25
 20
114.25
 11
1932.19890736089
 21
115.4677646334009
 72
     1
 10
1932.19890736089
 20
115.4677646334009
 11
1932.04662390368
 21
116.6618268633989
 72
     1
 10
1932.04662390368
 20
116.6618268633989
 11
1931.79611365262
 21
117.8089456269129
 72
     1
 10
1931.79611365262
 20
117.8089456269129
 11
1931.45225250482
 21
118.8867935620409
 72
     1
 10
1931.45225250482
 20
118.8867935620409
 11
1931.02173332638
 21
119.8743915847568
 72
     1
 10
1931.02173332638
 20
119.8743915847568
 11
1930.512935683379
 21
120.7525172229269
 72
     1
 10
1930.512935683379
 20
120.7525172229269
 11
1929.935762743219
 21
121.504078759857
 72
     1
 10
1929.935762743219
 20
121.504078759857
 11
1929.301448520639
 21
122.114447905118
 72
     1
 10
1929.301448520639
 20
122.114447905118
 11
1928.62233922047
 21
122.571744517583
 72
     1
 10
1928.62233922047
 20
122.571744517583
 11
1927.911652932749
 21
122.8670678388569
 72
     1
 10
1927.911652932749
 20
122.8670678388569
 11
1927.183222357689
 21
122.9946697364169
 72
     1
 10
1927.183222357689
 20
122.9946697364169
 11
1926.45122556785
 21
122.9520665844719
 72
     1
 10
1926.45122556785
 20
122.9520665844719
 11
1925.729910048099
 21
122.740087604915
 72
     1
 10
1925.729910048099
 20
122.740087604915
 11
1925.03331538457
 21
122.3628587274589
 72
     1
 10
1925.03331538457
 20
122.3628587274589
 11
1924.375
 21
121.8277222831138
 72
     1
 10
1924.375
 20
121.8277222831138
 11
1923.767777254538
 21
121.145094094059
 72
     1
 10
1923.767777254538
 20
121.145094094059
 11
1923.223466048219
 21
120.328260741516
 72
     1
 10
1923.223466048219
 20
120.328260741516
 11
1922.752660779529
 21
119.3931209575589
 72
     1
 10
1922.752660779529
 20
119.3931209575589
 11
1922.36452513749
 21
118.357876174377
 72
     1
 10
1922.36452513749
 20
118.357876174377
 11
1922.066613740869
 21
117.2426762540998
 72
     1
 10
1922.066613740869
 20
117.2426762540998
 11
1921.864725096148
 21
116.0692272946549
 72
     1
 10
1921.864725096148
 20
116.0692272946549
 11
1921.762788736138
 21
114.8603691452608
 72
     1
 10
1921.762788736138
 20
114.8603691452608
 11
1921.762788736138
 21
113.6396308547388
 72
     1
 10
1921.762788736138
 20
113.6396308547388
 11
1921.864725096148
 21
112.430772705345
 72
     1
 10
1921.864725096148
 20
112.430772705345
 11
1922.066613740869
 21
111.2573237458999
 72
     1
 10
1922.066613740869
 20
111.2573237458999
 11
1922.36452513749
 21
110.142123825624
 72
     1
 10
1922.36452513749
 20
110.142123825624
 11
1922.752660779529
 21
109.106879042441
 72
     1
 10
1922.752660779529
 20
109.106879042441
 11
1923.223466048219
 21
108.171739258484
 72
     1
 10
1923.223466048219
 20
108.171739258484
 11
1923.767777254538
 21
107.3549059059409
 72
     1
 10
1923.767777254538
 20
107.3549059059409
 11
1924.375
 21
106.6722777168859
 72
     1
 10
1924.375
 20
106.6722777168859
 11
1925.03331538457
 21
106.137141272541
 72
     1
 10
1925.03331538457
 20
106.137141272541
 11
1925.729910048099
 21
105.7599123950849
 72
     1
 10
1925.729910048099
 20
105.7599123950849
 11
1926.45122556785
 21
105.5479334155279
 72
     1
 10
1926.45122556785
 20
105.5479334155279
 11
1927.183222357689
 21
105.5053302635828
 72
     1
 10
1927.183222357689
 20
105.5053302635828
 11
1927.911652932749
 21
105.632932161143
 72
     1
 10
1927.911652932749
 20
105.632932161143
 11
1928.62233922047
 21
105.9282554824169
 72
     1
 10
1928.62233922047
 20
105.9282554824169
 11
1929.301448520639
 21
106.3855520948819
 72
     1
 10
1929.301448520639
 20
106.3855520948819
 11
1929.935762743219
 21
106.9959212401429
 72
     1
 10
1929.935762743219
 20
106.9959212401429
 11
1930.512935683379
 21
107.747482777073
 72
     1
 10
1930.512935683379
 20
107.747482777073
 11
1931.02173332638
 21
108.625608415243
 72
     1
 10
1931.02173332638
 20
108.625608415243
 11
1931.45225250482
 21
109.6132064379599
 72
     1
 10
1931.45225250482
 20
109.6132064379599
 11
1931.79611365262
 21
110.6910543730869
 72
     1
 10
1931.79611365262
 20
110.6910543730869
 11
1932.04662390368
 21
111.838173136601
 72
     1
 10
1932.04662390368
 20
111.838173136601
 11
1932.19890736089
 21
113.032235366599
 72
     1
 10
1932.19890736089
 20
113.032235366599
 11
1932.25
 21
114.25
 97
        1
330
3415
 75
     0
 76
     1
 98
        1
 10
0.0
 20
0.0
  0
TEXT
  5
347B
330
3043
100
AcDbEntity
  8
WAKU-MOJI
  6
Continuous
100
AcDbText
 10
2859.333333333333
 20
191.0
 30
0.0
 40
40.0
  1
島根小学校改築電気設備工事
 41
0.7
  7
M7
 72
     1
 11
3074.0
 21
211.0
 31
0.0
100
AcDbText
 73
     2
  0
TEXT
  5
347C
330
3043
100
AcDbEntity
  8
WAKU-MOJI
  6
Continuous
100
AcDbText
 10
2713.2
 20
79.0
 30
0.0
 40
40.0
  1
2LW-1・2T-1
 41
0.7
  7
M7
 72
     1
 11
2849.0
 21
99.0
 31
0.0
100
AcDbText
 73
     2
  0
TEXT
  5
347D
330
3043
100
AcDbEntity
  8
WAKU-MOJI
  6
Continuous
100
AcDbText
 10
3647.0
 20
195.0
 30
0.0
 40
40.0
  1
8160628
 41
0.7
  7
M7
 11
3647.0
 21
215.0
 31
0.0
100
AcDbText
 73
     2
  0
TEXT
  5
347E
330
3043
100
AcDbEntity
  8
WAKU-MOJI
  6
Continuous
100
AcDbText
 10
3648.0
 20
83.0
 30
0.0
 40
40.0
  1
2409618
 41
0.7
  7
M7
 11
3648.0
 21
103.0
 31
0.0
100
AcDbText
 73
     2
  0
TEXT
  5
347F
330
3043
100
AcDbEntity
  8
WAKU-MOJI
  6
Continuous
100
AcDbText
 10
1708.133333333333
 20
113.0
 30
0.0
 40
40.0
  1
青柳
 41
0.7
  7
M7
 72
     1
 11
1738.0
 21
133.0
 31
0.0
100
AcDbText
 73
     2
  0
TEXT
  5
3480
330
3043
100
AcDbEntity
  8
WAKU-MOJI
  6
Continuous
100
AcDbText
 10
4015.666666666667
 20
55.0
 30
0.0
 40
40.0
  1
5
 41
0.7
  7
M7
 72
     1
 11
4025.0
 21
75.0
 31
0.0
100
AcDbText
 73
     2
  0
TEXT
  5
3481
330
3043
100
AcDbEntity
  8
WAKU-MOJI
  6
Continuous
100
AcDbText
 10
1633.625
 20
169.5
 30
0.0
 40
35.0
  1
01
 41
0.7
  7
M7
 72
     1
 11
1652.0
 21
187.0
 31
0.0
100
AcDbText
 73
     2
  0
TEXT
  5
3482
330
3043
100
AcDbEntity
  8
WAKU-MOJI
  6
Continuous
100
AcDbText
 10
1701.833333333333
 20
169.5
 30
0.0
 40
35.0
  1
8
 41
0.7
  7
M7
 72
     1
 11
1710.0
 21
187.0
 31
0.0
100
AcDbText
 73
     2
  0
TEXT
  5
3483
330
3043
100
AcDbEntity
  8
WAKU-MOJI
  6
Continuous
100
AcDbText
 10
1747.583333333333
 20
169.5
 30
0.0
 40
35.0
  1
28
 41
0.7
  7
M7
 72
     1
 11
1768.0
 21
187.0
 31
0.0
100
AcDbText
 73
     2
  0
ENDBLK
  5
3045
330
3043
100
AcDbEntity
  8
0
100
AcDbBlockEnd
  0
BLOCK
  5
349B
330
3498
100
AcDbEntity
  8
0
100
AcDbBlockBegin
  2
TB-EU
 70
     0
 10
0.0
 20
0.0
 30
0.0
  3
TB-EU
  1

  0
CIRCLE
  5
3499
330
3498
100
AcDbEntity
  8
CONTROL-CIRCUIT
  6
Continuous
100
AcDbCircle
 10
0.0
 20
0.0
 30
0.0
 40
10.0
  0
LINE
  5
349A
330
3498
100
AcDbEntity
  8
CONTROL-CIRCUIT
  6
Continuous
100
AcDbLine
 10
0.0
 20
10.0
 30
0.0
 11
0.0
 21
25.0
 31
0.0
  0
ENDBLK
  5
349C
330
3498
100
AcDbEntity
  8
0
100
AcDbBlockEnd
  0
BLOCK
  5
34A0
330
349D
100
AcDbEntity
  8
0
100
AcDbBlockBegin
  2
TB-ED
 70
     0
 10
0.0
 20
0.0
 30
0.0
  3
TB-ED
  1

  0
CIRCLE
  5
349E
330
349D
100
AcDbEntity
  8
CONTROL-CIRCUIT
  6
Continuous
100
AcDbCircle
 10
0.0
 20
0.0
 30
0.0
 40
10.0
  0
LINE
  5
349F
330
349D
100
AcDbEntity
  8
CONTROL-CIRCUIT
  6
Continuous
100
AcDbLine
 10
0.0
 20
-10.0
 30
0.0
 11
0.0
 21
-25.0
 31
0.0
  0
ENDBLK
  5
34A1
330
349D
100
AcDbEntity
  8
0
100
AcDbBlockEnd
  0
BLOCK
  5
34A5
330
34A2
100
AcDbEntity
  8
0
100
AcDbBlockBegin
  2
AM03
 70
     0
 10
0.0
 20
0.0
 30
0.0
  3
AM03
  1

  0
CIRCLE
  5
34A3
330
34A2
100
AcDbEntity
  8
JIS
  6
Continuous
 62
     7
100
AcDbCircle
 10
-0.0000000000002274
 20
-0.0000000000011369
 30
0.0
 40
10.0
  0
LINE
  5
34A4
330
34A2
100
AcDbEntity
  8
JIS
  6
ByBlock
 62
     7
100
AcDbLine
 10
-0.0000000000002274
 20
-10.00000000000021
 30
0.0
 11
-0.0000000000002274
 21
-25.0
 31
0.0
  0
ENDBLK
  5
34A6
330
34A2
100
AcDbEntity
  8
0
100
AcDbBlockEnd
  0
BLOCK
  5
34AA
330
34A7
100
AcDbEntity
  8
0
100
AcDbBlockBegin
  2
AL03
 70
     0
 10
0.0
 20
0.0
 30
0.0
  3
AL03
  1

  0
CIRCLE
  5
34A8
330
34A7
100
AcDbEntity
  8
JIS
  6
Continuous
 62
     7
100
AcDbCircle
 10
0.0
 20
0.0
 30
0.0
 40
10.0
  0
LINE
  5
34A9
330
34A7
100
AcDbEntity
  8
JIS
  6
ByBlock
 62
     7
100
AcDbLine
 10
0.0
 20
9.99999999999909
 30
0.0
 11
0.0
 21
24.99999999999886
 31
0.0
  0
ENDBLK
  5
34AB
330
34A7
100
AcDbEntity
  8
0
100
AcDbBlockEnd
  0
BLOCK
  5
34B8
330
34AC
100
AcDbEntity
  8
0
100
AcDbBlockBegin
  2
AY03
 70
     2
 10
0.0
 20
0.0
 30
0.0
  3
AY03
  1

  0
ATTDEF
  5
34AD
330
34AC
100
AcDbEntity
  8
ZOKUSEI
  6
ByBlock
100
AcDbText
 10
55.0
 20
105.0000089630634
 30
0.0
 40
25.0
  1
SA
 41
0.7
  7
M7
100
AcDbAttributeDefinition
  3
記号
  2
KIGO
 70
     8
  0
ATTDEF
  5
34AE
330
34AC
100
AcDbEntity
  8
ZOKUSEI
  6
ByBlock
100
AcDbText
 10
145.0
 20
105.0000089630634
 30
0.0
 40
25.0
  1
1
 41
0.7
  7
M7
100
AcDbAttributeDefinition
  3
番号を入力してください
  2
BANGO
 70
     0
  0
ATTDEF
  5
34AF
330
34AC
100
AcDbEntity
  8
ZOKUSEI
100
AcDbText
 10
55.0
 20
74.99999800000023
 30
0.0
 40
25.0
  1
20kA(8/20)
 41
0.7
  7
M7
100
AcDbAttributeDefinition
  3
放電電流を入力してください
  2
TEIKAKU1
 70
     0
  0
ATTDEF
  5
34B0
330
34AC
100
AcDbEntity
  8
ZOKUSEI
100
AcDbText
 10
55.0
 20
44.99999800000023
 30
0.0
 40
25.0
  1
≧1.5kV
 41
0.7
  7
M7
100
AcDbAttributeDefinition
  3
制限電圧を入力してください
  2
TEIKAKU2
 70
     0
  0
ATTDEF
  5
34B1
330
34AC
100
AcDbEntity
  8
ZOKUSEI
100
AcDbText
 10
54.99999899999965
 20
15.00000199999975
 30
0.0
 40
25.0
  1
(DEHNgapC/T)
 41
0.7
  7
M7
100
AcDbAttributeDefinition
  3
形式を入力してください:
  2
KATA
 70
     0
  0
LINE
  5
34B2
330
34AC
100
AcDbEntity
  8
JIS
  6
ByBlock
 62
     3
100
AcDbLine
 10
0.0
 20
105.0
 30
0.0
 11
0.0
 21
149.9999980000002
 31
0.0
  0
CIRCLE
  5
34B3
330
34AC
100
AcDbEntity
  8
JIS
  6
Continuous
 62
     3
100
AcDbCircle
 10
0.0
 20
75.0
 30
0.0
 40
45.99999799999999
  0
HATCH
  5
34B4
330
34AC
100
AcDbEntity
  8
JIS
  6
Continuous
 62
     3
100
AcDbHatch
 10
0.0
 20
0.0
 30
0.0
210
0.0
220
0.0
230
1.0
  2
ANSI31
 70
     0
 71
     0
 91
        1
 92
        7
 72
     0
 73
     1
 93
        3
 10
10.0
 20
45.0
 10
-10.0
 20
45.0
 10
0.0
 20
70.0
 97
        0
 75
     0
 76
     1
 52
0.0
 41
1.0
 77
     0
 78
     1
 53
315.0
 43
-2200.0
 44
2100.0
 45
-0.0883883476483184
 46
-0.0883883476483185
 79
     0
 47
0.2261904761904762
 98
        1
 10
0.0
 20
55.0
  0
LINE
  5
34B5
330
34AC
100
AcDbEntity
  8
JIS
  6
ByBlock
 62
     3
100
AcDbLine
 10
0.0
 20
45.0
 30
0.0
 11
0.0
 21
0.0
 31
0.0
  0
HATCH
  5
34B6
330
34AC
100
AcDbEntity
  8
JIS
  6
Continuous
 62
     3
100
AcDbHatch
 10
0.0
 20
0.0
 30
0.0
210
0.0
220
0.0
230
1.0
  2
ANSI31
 70
     0
 71
     0
 91
        1
 92
        7
 72
     1
 73
     1
 93
        2
 10
30.0
 20
65.0
 42
1.0
 10
20.0
 20
65.0
 42
1.0
 97
        0
 75
     0
 76
     1
 52
0.0
 41
1.0
 77
     0
 78
     1
 53
45.0
 43
-2200.0
 44
-1950.0
 45
-0.0883883476483184
 46
0.0883883476483185
 79
     0
 47
0.2261904761904762
 98
        1
 10
25.0
 20
65.0
  0
HATCH
  5
34B7
330
34AC
100
AcDbEntity
  8
JIS
  6
Continuous
 62
     3
100
AcDbHatch
 10
0.0
 20
0.0
 30
0.0
210
0.0
220
0.0
230
1.0
  2
ANSI31
 70
     0
 71
     0
 91
        1
 92
        7
 72
     0
 73
     1
 93
        3
 10
10.0
 20
105.0
 10
-10.0
 20
105.0
 10
0.0
 20
80.0
 97
        0
 75
     0
 76
     1
 52
0.0
 41
1.0
 77
     0
 78
     1
 53
45.0
 43
-2200.0
 44
-1950.0
 45
-0.0883883476483184
 46
0.0883883476483185
 79
     0
 47
0.2261904761904762
 98
        1
 10
0.0
 20
95.0
  0
ENDBLK
  5
34B9
330
34AC
100
AcDbEntity
  8
0
100
AcDbBlockEnd
  0
BLOCK
  5
34C5
330
34BA
100
AcDbEntity
  8
0
100
AcDbBlockBegin
  2
AY02
 70
     2
 10
0.0
 20
0.0
 30
0.0
  3
AY02
  1

  0
ATTDEF
  5
34BB
330
34BA
100
AcDbEntity
  8
ZOKUSEI
  6
ByBlock
100
AcDbText
 10
40.0
 20
105.0000109630631
 30
0.0
 40
25.0
  1
SA
 41
0.7
  7
M7
100
AcDbAttributeDefinition
  3
記号
  2
KIGO
 70
     8
  0
ATTDEF
  5
34BC
330
34BA
100
AcDbEntity
  8
ZOKUSEI
  6
ByBlock
100
AcDbText
 10
130.0
 20
105.0000109630631
 30
0.0
 40
25.0
  1
1
 41
0.7
  7
M7
100
AcDbAttributeDefinition
  3
番号を入力してください
  2
BANGO
 70
     0
  0
ATTDEF
  5
34BD
330
34BA
100
AcDbEntity
  8
ZOKUSEI
100
AcDbText
 10
40.0
 20
75.0
 30
0.0
 40
25.0
  1
15kA(8/20)
 41
0.7
  7
M7
100
AcDbAttributeDefinition
  3
放電電流を入力してください
  2
TEIKAKU1
 70
     0
  0
ATTDEF
  5
34BE
330
34BA
100
AcDbEntity
  8
ZOKUSEI
100
AcDbText
 10
40.0
 20
45.0
 30
0.0
 40
25.0
  1
≧750V
 41
0.7
  7
M7
100
AcDbAttributeDefinition
  3
制限電圧を入力してください
  2
TEIKAKU2
 70
     0
  0
ATTDEF
  5
34BF
330
34BA
100
AcDbEntity
  8
ZOKUSEI
100
AcDbText
 10
39.99999899999965
 20
15.00000399999953
 30
0.0
 40
25.0
  1
(DEHNguardT150FM)
 41
0.7
  7
M7
100
AcDbAttributeDefinition
  3
形式を入力してください:
  2
KATA
 70
     0
  0
LWPOLYLINE
  5
34C0
330
34BA
100
AcDbEntity
  8
JIS
  6
Continuous
 62
     3
100
AcDbPolyline
 90
        4
 70
     1
 43
0.0
 10
-19.99999969999999
 20
25.00000050000017
 10
20.00000030000001
 20
25.00000050000017
 10
20.00000030000001
 20
124.9999994999997
 10
-19.99999969999999
 20
124.9999994999997
  0
LINE
  5
34C1
330
34BA
100
AcDbEntity
  8
JIS
  6
Continuous
 62
     3
100
AcDbLine
 10
-29.99999969999999
 20
124.9999994999997
 30
0.0
 11
30.00000030000001
 21
24.99999949999982
 31
0.0
  0
LINE
  5
34C2
330
34BA
100
AcDbEntity
  8
JIS
  6
Continuous
 62
     3
100
AcDbLine
 10
0.0
 20
25.0
 30
0.0
 11
0.0
 21
0.0
 31
0.0
  0
LINE
  5
34C3
330
34BA
100
AcDbEntity
  8
JIS
  6
Continuous
 62
     3
100
AcDbLine
 10
30.00000030000001
 20
24.99999949999982
 30
0.0
 11
30.00000030000001
 21
14.99999949999983
 31
0.0
  0
LINE
  5
34C4
330
34BA
100
AcDbEntity
  8
JIS
  6
Continuous
 62
     3
100
AcDbLine
 10
0.0
 20
125.0
 30
0.0
 11
0.0
 21
150.0
 31
0.0
  0
ENDBLK
  5
34C6
330
34BA
100
AcDbEntity
  8
0
100
AcDbBlockEnd
  0
ENDSEC
  0
SECTION
  2
ENTITIES
  0
LINE
  5
3551
330
18
100
AcDbEntity
  8
KYU-JIS
  6
ByBlock
100
AcDbLine
 10
2675.000001
 20
2324.999998999999
 30
0.0
 11
2774.999998999999
 21
2324.999998999999
 31
0.0
  0
LINE
  5
3552
330
18
100
AcDbEntity
  8
KYU-JIS
  6
ByBlock
100
AcDbLine
 10
2650.000001
 20
2275.0
 30
0.0
 11
2650.000001
 21
2225.0
 31
0.0
  0
LINE
  5
3553
330
18
100
AcDbEntity
  8
KYU-JIS
  6
ByBlock
100
AcDbLine
 10
2650.000001
 20
2424.999998
 30
0.0
 11
2650.000001
 21
2374.999998000001
 31
0.0
  0
CIRCLE
  5
3554
330
18
100
AcDbEntity
  8
KYU-JIS
  6
ByBlock
100
AcDbCircle
 10
2650.000001
 20
2283.00003
 30
0.0
 40
8.0
  0
CIRCLE
  5
3555
330
18
100
AcDbEntity
  8
KYU-JIS
  6
ByBlock
100
AcDbCircle
 10
2650.000001
 20
2366.999968
 30
0.0
 40
8.0
  0
ARC
  5
3556
330
18
100
AcDbEntity
  8
KYU-JIS
  6
ByBlock
100
AcDbCircle
 10
2614.166680999999
 20
2324.999998999999
 30
0.0
 40
60.83331999999999
100
AcDbArc
 50
321.8412169999944
 51
38.1587980000034
  0
LINE
  5
3557
330
18
100
AcDbEntity
  8
KYU-JIS
  6
ByBlock
100
AcDbLine
 10
2700.0
 20
2275.0
 30
0.0
 11
2700.0
 21
2225.0
 31
0.0
  0
LINE
  5
3558
330
18
100
AcDbEntity
  8
KYU-JIS
  6
ByBlock
100
AcDbLine
 10
2700.0
 20
2424.999998
 30
0.0
 11
2700.0
 21
2374.999998000001
 31
0.0
  0
CIRCLE
  5
3559
330
18
100
AcDbEntity
  8
KYU-JIS
  6
ByBlock
100
AcDbCircle
 10
2700.0
 20
2283.00003
 30
0.0
 40
8.0
  0
CIRCLE
  5
355A
330
18
100
AcDbEntity
  8
KYU-JIS
  6
ByBlock
100
AcDbCircle
 10
2700.0
 20
2366.999968
 30
0.0
 40
8.0
  0
ARC
  5
355B
330
18
100
AcDbEntity
  8
KYU-JIS
  6
ByBlock
100
AcDbCircle
 10
2664.16668
 20
2324.999998999999
 30
0.0
 40
60.83331999999999
100
AcDbArc
 50
321.8412169999944
 51
38.1587980000034
  0
LINE
  5
355C
330
18
100
AcDbEntity
  8
KYU-JIS
  6
ByBlock
100
AcDbLine
 10
2750.0
 20
2275.0
 30
0.0
 11
2750.0
 21
2225.0
 31
0.0
  0
LINE
  5
355D
330
18
100
AcDbEntity
  8
KYU-JIS
  6
ByBlock
100
AcDbLine
 10
2750.0
 20
2424.999998
 30
0.0
 11
2750.0
 21
2374.999998000001
 31
0.0
  0
CIRCLE
  5
355E
330
18
100
AcDbEntity
  8
KYU-JIS
  6
ByBlock
100
AcDbCircle
 10
2750.0
 20
2283.00003
 30
0.0
 40
8.0
  0
CIRCLE
  5
355F
330
18
100
AcDbEntity
  8
KYU-JIS
  6
ByBlock
100
AcDbCircle
 10
2750.0
 20
2366.999968
 30
0.0
 40
8.0
  0
ARC
  5
3560
330
18
100
AcDbEntity
  8
KYU-JIS
  6
ByBlock
100
AcDbCircle
 10
2714.166678999999
 20
2324.999998999999
 30
0.0
 40
60.83331999999999
100
AcDbArc
 50
321.8412169999944
 51
38.1587980000034
  0
POINT
  5
3576
330
18
100
AcDbEntity
  8
TEN
100
AcDbPoint
 10
2799.999998999999
 20
2344.999999
 30
0.0
  0
POINT
  5
3577
330
18
100
AcDbEntity
  8
TEN
100
AcDbPoint
 10
2919.999996999999
 20
2344.999999000001
 30
0.0
  0
POINT
  5
3578
330
18
100
AcDbEntity
  8
TEN
100
AcDbPoint
 10
2799.999998999999
 20
2304.999998999999
 30
0.0
  0
POINT
  5
3579
330
18
100
AcDbEntity
  8
TEN
100
AcDbPoint
 10
2919.999998
 20
2304.999991036936
 30
0.0
  0
POINT
  5
357A
330
18
100
AcDbEntity
  8
TEN
100
AcDbPoint
 10
2799.999998999999
 20
2265.0
 30
0.0
  0
POINT
  5
359D
330
18
100
AcDbEntity
  8
TEN
  6
Continuous
 62
     4
100
AcDbPoint
 10
3782.0
 20
103.0
 30
0.0
  0
POINT
  5
359E
330
18
100
AcDbEntity
  8
TEN
  6
Continuous
 62
     4
100
AcDbPoint
 10
3781.0
 20
215.0
 30
0.0
  0
POINT
  5
359F
330
18
100
AcDbEntity
  8
TEN
  6
Continuous
 62
     4
100
AcDbPoint
 10
4018.0
 20
80.12500000000001
 30
0.0
  0
POINT
  5
35A0
330
18
100
AcDbEntity
  8
TEN
  6
Continuous
 62
     4
100
AcDbPoint
 10
3990.0
 20
124.375
 30
0.0
  0
POINT
  5
35A1
330
18
100
AcDbEntity
  8
TEN
  6
Continuous
 62
     4
100
AcDbPoint
 10
1652.2
 20
187.3999999999999
 30
0.0
  0
POINT
  5
35A2
330
18
100
AcDbEntity
  8
TEN
  6
Continuous
 62
     4
100
AcDbPoint
 10
1710.0
 20
187.1
 30
0.0
  0
POINT
  5
35A3
330
18
100
AcDbEntity
  8
TEN
  6
Continuous
 62
     4
100
AcDbPoint
 10
1767.8
 20
186.8
 30
0.0
  0
LWPOLYLINE
  5
35A4
102
{ACAD_REACTORS
330
3607
102
}
330
18
100
AcDbEntity
  8
WAKU
  6
Continuous
 62
     7
100
AcDbPolyline
 90
       70
 70
     1
 43
0.0
 10
1869.39
 20
108.4624190070458
 10
1868.950466641679
 20
107.893481361466
 10
1868.195926382809
 20
107.118483114415
 10
1867.36244213045
 20
106.4822917315619
 10
1866.466236707499
 20
105.9972899545159
 10
1865.524753733089
 20
105.6729177911879
 10
1864.55631810239
 20
105.5154887767669
 10
1863.579779313388
 20
105.5280670879479
 10
1862.61414458282
 20
105.71040790221
 10
1861.6782088923
 20
106.058962163013
 10
1860.79018916545
 20
106.5669456581459
 10
1859.967369696138
 20
107.224471066698
 10
1859.2257657294
 20
108.018740404517
 10
1858.57981174287
 20
108.934294122408
 10
1858.04208049616
 20
109.9533120086809
 10
1857.6230383163
 20
111.055960039295
 10
1857.33084138268
 20
112.220776424578
 10
1857.17117697625
 20
113.425089338548
 10
1857.14715278305
 20
114.6454582002218
 10
1857.259236406689
 20
115.858129917856
 10
1857.50524626691
 20
117.0395012158589
 10
1857.880394061639
 20
118.1665780457059
 10
1858.37737796575
 20
119.2174231389339
 10
1858.98652475288
 20
120.171582991124
 10
1859.695978073699
 20
121.0104859660919
 10
1860.49192922631
 20
121.717803771669
 10
1861.35888592692
 20
122.2797692713309
 10
1862.279973849489
 20
122.6854444458538
 10
1863.23726506533
 20
122.9269332894139
 10
1864.21212698983
 20
122.999535496362
 10
1865.18558504451
 20
122.9018379473209
 10
1866.138691975639
 20
122.6357422139559
 10
1867.05289664094
 20
122.2064275470369
 10
1867.910405086499
 20
121.622250068216
 10
1868.694526885819
 20
120.894580127628
 10
1869.39
 20
120.0375809929539
 10
1869.39
 20
124.8588111963589
 10
1868.15817603983
 20
125.5675242732629
 10
1866.85759997358
 20
126.0825913720409
 10
1865.51052501831
 20
126.3951995518288
 10
1864.14
 20
126.5
 10
1862.769474981689
 20
126.3951995518288
 10
1861.422400026419
 20
126.0825913720409
 10
1860.121823960168
 20
125.5675242732629
 10
1858.89
 20
124.8588111963589
 10
1857.74800499541
 20
123.968578418568
 10
1856.71537879754
 20
122.912058069535
 10
1855.809789926939
 20
121.7073275053569
 10
1855.04673326026
 20
120.375
 10
1854.439264908629
 20
118.9378720464719
 10
1853.99777882397
 20
117.4205333025059
 10
1853.72982895558
 20
115.8489458546959
 10
1853.64
 20
114.25
 10
1853.72982895558
 20
112.6510541453049
 10
1853.99777882397
 20
111.0794666974939
 10
1854.439264908629
 20
109.5621279535279
 10
1855.04673326026
 20
108.125
 10
1855.809789926939
 20
106.7926724946429
 10
1856.71537879754
 20
105.5879419304649
 10
1857.74800499541
 20
104.5314215814318
 10
1858.89
 20
103.6411888036409
 10
1860.121823960168
 20
102.9324757267369
 10
1861.422400026419
 20
102.4174086279589
 10
1862.769474981689
 20
102.104800448171
 10
1864.14
 20
102.0
 10
1865.51052501831
 20
102.104800448171
 10
1866.85759997358
 20
102.4174086279589
 10
1868.15817603983
 20
102.9324757267369
 10
1869.39
 20
103.6411888036409
 10
1869.39
 20
103.6411888036409
  0
LWPOLYLINE
  5
35A5
102
{ACAD_REACTORS
330
3608
102
}
330
18
100
AcDbEntity
  8
WAKU
  6
Continuous
 62
     7
100
AcDbPolyline
 90
       46
 70
     0
 43
0.0
 10
1932.25
 20
114.25
 10
1932.19890736089
 20
115.4677646334009
 10
1932.04662390368
 20
116.6618268633989
 10
1931.79611365262
 20
117.8089456269129
 10
1931.45225250482
 20
118.8867935620409
 10
1931.02173332638
 20
119.8743915847568
 10
1930.512935683379
 20
120.7525172229269
 10
1929.935762743219
 20
121.504078759857
 10
1929.301448520639
 20
122.114447905118
 10
1928.62233922047
 20
122.571744517583
 10
1927.911652932749
 20
122.8670678388569
 10
1927.183222357689
 20
122.9946697364169
 10
1926.45122556785
 20
122.9520665844719
 10
1925.729910048099
 20
122.740087604915
 10
1925.03331538457
 20
122.3628587274589
 10
1924.375
 20
121.8277222831138
 10
1923.767777254538
 20
121.145094094059
 10
1923.223466048219
 20
120.328260741516
 10
1922.752660779529
 20
119.3931209575589
 10
1922.36452513749
 20
118.357876174377
 10
1922.066613740869
 20
117.2426762540998
 10
1921.864725096148
 20
116.0692272946549
 10
1921.762788736138
 20
114.8603691452608
 10
1921.762788736138
 20
113.6396308547388
 10
1921.864725096148
 20
112.430772705345
 10
1922.066613740869
 20
111.2573237458999
 10
1922.36452513749
 20
110.142123825624
 10
1922.752660779529
 20
109.106879042441
 10
1923.223466048219
 20
108.171739258484
 10
1923.767777254538
 20
107.3549059059409
 10
1924.375
 20
106.6722777168859
 10
1925.03331538457
 20
106.137141272541
 10
1925.729910048099
 20
105.7599123950849
 10
1926.45122556785
 20
105.5479334155279
 10
1927.183222357689
 20
105.5053302635828
 10
1927.911652932749
 20
105.632932161143
 10
1928.62233922047
 20
105.9282554824169
 10
1929.301448520639
 20
106.3855520948819
 10
1929.935762743219
 20
106.9959212401429
 10
1930.512935683379
 20
107.747482777073
 10
1931.02173332638
 20
108.625608415243
 10
1931.45225250482
 20
109.6132064379599
 10
1931.79611365262
 20
110.6910543730869
 10
1932.04662390368
 20
111.838173136601
 10
1932.19890736089
 20
113.032235366599
 10
1932.25
 20
114.25
  0
LWPOLYLINE
  5
35A6
102
{ACAD_REACTORS
330
3608
102
}
330
18
100
AcDbEntity
  8
WAKU
  6
Continuous
 62
     7
100
AcDbPolyline
 90
       49
 70
     0
 43
0.0
 10
1927.0
 20
126.5
 10
1925.85789581807
 20
126.3951995518288
 10
1924.73533335535
 20
126.0825913720409
 10
1923.65151996681
 20
125.5675242732629
 10
1922.625
 20
124.8588111963589
 10
1921.67333749617
 20
123.968578418568
 10
1920.81281566462
 20
122.912058069535
 10
1920.05815827245
 20
121.7073275053569
 10
1919.42227771689
 20
120.375
 10
1918.91605409053
 20
118.9378720464719
 10
1918.54814901997
 20
117.4205333025059
 10
1918.324857462978
 20
115.8489458546959
 10
1918.25
 20
114.25
 10
1918.324857462978
 20
112.6510541453038
 10
1918.54814901997
 20
111.0794666974939
 10
1918.91605409053
 20
109.5621279535279
 10
1919.42227771689
 20
108.125
 10
1920.05815827245
 20
106.7926724946429
 10
1920.81281566462
 20
105.5879419304649
 10
1921.67333749617
 20
104.5314215814318
 10
1922.625
 20
103.6411888036409
 10
1923.65151996681
 20
102.9324757267369
 10
1924.73533335535
 20
102.4174086279589
 10
1925.85789581807
 20
102.104800448171
 10
1927.0
 20
102.0
 10
1928.142104181929
 20
102.104800448171
 10
1929.264666644649
 20
102.4174086279589
 10
1930.348480033189
 20
102.9324757267369
 10
1931.375
 20
103.6411888036409
 10
1932.326662503829
 20
104.5314215814318
 10
1933.18718433538
 20
105.5879419304649
 10
1933.94184172755
 20
106.7926724946429
 10
1934.577722283109
 20
108.125
 10
1935.08394590947
 20
109.5621279535279
 10
1935.45185098003
 20
111.0794666974939
 10
1935.67514253702
 20
112.6510541453038
 10
1935.75
 20
114.25
 10
1935.67514253702
 20
115.8489458546959
 10
1935.45185098003
 20
117.4205333025059
 10
1935.08394590947
 20
118.9378720464719
 10
1934.577722283109
 20
120.375
 10
1933.94184172755
 20
121.7073275053569
 10
1933.18718433538
 20
122.912058069535
 10
1932.326662503829
 20
123.968578418568
 10
1931.375
 20
124.8588111963589
 10
1930.348480033189
 20
125.5675242732629
 10
1929.264666644649
 20
126.0825913720409
 10
1928.142104181929
 20
126.3951995518288
 10
1927.0
 20
126.5
  0
LWPOLYLINE
  5
35A7
102
{ACAD_REACTORS
330
3608
102
}
330
18
100
AcDbEntity
  8
WAKU
  6
Continuous
 62
     7
100
AcDbPolyline
 90
       11
 70
     0
 43
0.0
 10
1937.5
 20
102.0
 10
1941.0
 20
102.0
 10
1941.0
 20
119.5
 10
1951.5
 20
102.0
 10
1955.0
 20
102.0
 10
1955.0
 20
126.5
 10
1951.5
 20
126.5
 10
1951.5
 20
109.0
 10
1941.0
 20
126.5
 10
1937.5
 20
126.5
 10
1937.5
 20
102.0
  0
LWPOLYLINE
  5
35A8
102
{ACAD_REACTORS
330
3608
102
}
330
18
100
AcDbEntity
  8
WAKU
  6
Continuous
 62
     7
100
AcDbPolyline
 90
        5
 70
     0
 43
0.0
 10
1913.0
 20
126.5
 10
1913.0
 20
102.0
 10
1916.5
 20
102.0
 10
1916.5
 20
126.5
 10
1913.0
 20
126.5
  0
LWPOLYLINE
  5
35A9
102
{ACAD_REACTORS
330
3608
102
}
330
18
100
AcDbEntity
  8
WAKU
  6
Continuous
 62
     7
100
AcDbPolyline
 90
        7
 70
     0
 43
0.0
 10
1902.5
 20
126.5
 10
1902.5
 20
105.4999999999999
 10
1909.499999999999
 20
105.4999999999999
 10
1909.499999999999
 20
102.0
 10
1899.0
 20
102.0
 10
1899.0
 20
126.5
 10
1902.5
 20
126.5
  0
LWPOLYLINE
  5
35AA
102
{ACAD_REACTORS
330
3608
102
}
330
18
100
AcDbEntity
  8
WAKU
  6
Continuous
 62
     7
100
AcDbPolyline
 90
       13
 70
     0
 43
0.0
 10
1888.5
 20
102.0
 10
1874.5
 20
102.0
 10
1874.5
 20
126.5
 10
1888.5
 20
126.5
 10
1888.5
 20
123.0
 10
1878.0
 20
123.0
 10
1878.0
 20
116.0
 10
1888.5
 20
116.0
 10
1888.5
 20
112.5
 10
1878.0
 20
112.5
 10
1878.0
 20
105.4999999999999
 10
1888.5
 20
105.4999999999999
 10
1888.5
 20
102.0
  0
POINT
  5
35AB
330
18
100
AcDbEntity
  8
TEN
  6
Continuous
 62
     4
100
AcDbPoint
 10
1652.2
 20
77.30000000000003
 30
0.0
  0
POINT
  5
35AC
330
18
100
AcDbEntity
  8
TEN
  6
Continuous
 62
     4
100
AcDbPoint
 10
1710.0
 20
77.0
 30
0.0
  0
POINT
  5
35AD
330
18
100
AcDbEntity
  8
TEN
  6
Continuous
 62
     4
100
AcDbPoint
 10
1767.8
 20
76.7
 30
0.0
  0
CIRCLE
  5
35AE
330
18
100
AcDbEntity
  8
WAKU
  6
Continuous
 62
     2
100
AcDbCircle
 10
1740.0
 20
69.5
 30
0.0
 40
3.0
  0
CIRCLE
  5
35AF
330
18
100
AcDbEntity
  8
WAKU
  6
Continuous
 62
     2
100
AcDbCircle
 10
1680.0
 20
69.5
 30
0.0
 40
3.0
  0
POINT
  5
35B0
330
18
100
AcDbEntity
  8
TEN
  6
Continuous
 62
     4
100
AcDbPoint
 10
3459.0
 20
104.0
 30
0.0
  0
POINT
  5
35B1
330
18
100
AcDbEntity
  8
TEN
  6
Continuous
 62
     4
100
AcDbPoint
 10
1510.0
 20
83.0
 30
0.0
  0
POINT
  5
35B2
330
18
100
AcDbEntity
  8
TEN
  6
Continuous
 62
     4
100
AcDbPoint
 10
1515.0
 20
194.0
 30
0.0
  0
POINT
  5
35B3
330
18
100
AcDbEntity
  8
TEN
  6
Continuous
 62
     4
100
AcDbPoint
 10
1738.0
 20
243.0
 30
0.0
  0
POINT
  5
35B4
330
18
100
AcDbEntity
  8
TEN
  6
Continuous
 62
     4
100
AcDbPoint
 10
1734.0
 20
131.0
 30
0.0
  0
POINT
  5
35B5
330
18
100
AcDbEntity
  8
TEN
  6
Continuous
 62
     4
100
AcDbPoint
 10
2839.0
 20
99.0
 30
0.0
  0
POINT
  5
35B6
330
18
100
AcDbEntity
  8
TEN
  6
Continuous
 62
     4
100
AcDbPoint
 10
3074.0
 20
211.0
 30
0.0
  0
POINT
  5
35B7
330
18
100
AcDbEntity
  8
TEN
  6
Continuous
 62
     4
100
AcDbPoint
 10
3220.0
 20
103.0
 30
0.0
  0
POINT
  5
35B8
330
18
100
AcDbEntity
  8
TEN
  6
Continuous
 62
     4
100
AcDbPoint
 10
3648.0
 20
103.0
 30
0.0
  0
POINT
  5
35B9
330
18
100
AcDbEntity
  8
TEN
  6
Continuous
 62
     4
100
AcDbPoint
 10
3647.0
 20
215.0
 30
0.0
  0
TEXT
  5
35BA
330
18
100
AcDbEntity
  8
WAKU
  6
Continuous
 62
     1
100
AcDbText
 10
3859.0
 20
2832.0
 30
0.0
 40
25.0
  1
８
 41
0.84
  7
EXCADSTD
100
AcDbText
  0
TEXT
  5
35BB
330
18
100
AcDbEntity
  8
WAKU
  6
Continuous
 62
     1
100
AcDbText
 10
3392.0
 20
2837.0
 30
0.0
 40
25.0
  1
７
 41
0.84
  7
EXCADSTD
100
AcDbText
  0
TEXT
  5
35BC
330
18
100
AcDbEntity
  8
WAKU
  6
Continuous
 62
     1
100
AcDbText
 10
2887.0
 20
2837.0
 30
0.0
 40
25.0
  1
６
 41
0.84
  7
EXCADSTD
100
AcDbText
  0
TEXT
  5
35BD
330
18
100
AcDbEntity
  8
WAKU
  6
Continuous
 62
     1
100
AcDbText
 10
2376.0
 20
2837.0
 30
0.0
 40
25.0
  1
５
 41
0.84
  7
EXCADSTD
100
AcDbText
  0
TEXT
  5
35BE
330
18
100
AcDbEntity
  8
WAKU
  6
Continuous
 62
     1
100
AcDbText
 10
1890.0
 20
2837.0
 30
0.0
 40
25.0
  1
４
 41
0.84
  7
EXCADSTD
100
AcDbText
  0
TEXT
  5
35BF
330
18
100
AcDbEntity
  8
WAKU
  6
Continuous
 62
     1
100
AcDbText
 10
1375.0
 20
2837.0
 30
0.0
 40
25.0
  1
３
 41
0.84
  7
EXCADSTD
100
AcDbText
  0
TEXT
  5
35C0
330
18
100
AcDbEntity
  8
WAKU
  6
Continuous
 62
     1
100
AcDbText
 10
879.0
 20
2837.0
 30
0.0
 40
25.0
  1
２
 41
0.84
  7
EXCADSTD
100
AcDbText
  0
TEXT
  5
35C1
330
18
100
AcDbEntity
  8
WAKU
  6
Continuous
 62
     1
100
AcDbText
 10
378.0
 20
2837.0
 30
0.0
 40
25.0
  1
１
 41
0.84
  7
EXCADSTD
100
AcDbText
  0
TEXT
  5
35C2
330
18
100
AcDbEntity
  8
WAKU
  6
Continuous
 62
     1
100
AcDbText
 10
123.0
 20
520.0
 30
0.0
 40
25.0
  1
Ｅ
 41
0.84
  7
EXCADSTD
100
AcDbText
  0
TEXT
  5
35C3
330
18
100
AcDbEntity
  8
WAKU
  6
Continuous
 62
     1
100
AcDbText
 10
118.0
 20
1025.0
 30
0.0
 40
25.0
  1
Ｄ
 41
0.84
  7
EXCADSTD
100
AcDbText
  0
TEXT
  5
35C4
330
18
100
AcDbEntity
  8
WAKU
  6
Continuous
 62
     1
100
AcDbText
 10
123.0
 20
1531.0
 30
0.0
 40
25.0
  1
Ｃ
 41
0.84
  7
EXCADSTD
100
AcDbText
  0
TEXT
  5
35C5
330
18
100
AcDbEntity
  8
WAKU
  6
Continuous
 62
     1
100
AcDbText
 10
118.0
 20
2027.0
 30
0.0
 40
25.0
  1
Ｂ
 41
0.84
  7
EXCADSTD
100
AcDbText
  0
TEXT
  5
35C6
330
18
100
AcDbEntity
  8
WAKU
  6
Continuous
 62
     1
100
AcDbText
 10
118.0
 20
2527.0
 30
0.0
 40
25.0
  1
Ａ
 41
0.84
  7
EXCADSTD
100
AcDbText
  0
TEXT
  5
35C7
330
18
100
AcDbEntity
  8
WAKU
  6
Continuous
 62
     2
100
AcDbText
 10
1055.0
 20
170.0
 30
0.0
 40
30.0
  1
日塗工・マンセル
 41
0.84
  7
EXCADSTD
100
AcDbText
  0
TEXT
  5
35C8
330
18
100
AcDbEntity
  8
WAKU
  6
Continuous
 62
     2
100
AcDbText
 10
1056.0
 20
117.0
 30
0.0
 40
30.0
  1
外面
 41
0.84
  7
EXCADSTD
100
AcDbText
  0
LINE
  5
35C9
330
18
100
AcDbEntity
  8
WAKU
  6
DOT
 62
     3
100
AcDbLine
 10
210.0
 20
110.0
 30
0.0
 11
1401.0
 21
110.0
 31
0.0
  0
LINE
  5
35CA
330
18
100
AcDbEntity
  8
WAKU
  6
DOT
 62
     3
100
AcDbLine
 10
210.0
 20
210.0
 30
0.0
 11
1050.0
 21
210.0
 31
0.0
  0
LINE
  5
35CB
330
18
100
AcDbEntity
  8
WAKU
  6
Continuous
 62
     1
100
AcDbLine
 10
150.0
 20
320.0
 30
0.0
 11
170.0
 21
320.0
 31
0.0
  0
LINE
  5
35CC
330
18
100
AcDbEntity
  8
WAKU
  6
Continuous
 62
     1
100
AcDbLine
 10
150.0
 20
820.0
 30
0.0
 11
170.0
 21
820.0
 31
0.0
  0
LINE
  5
35CD
330
18
100
AcDbEntity
  8
WAKU
  6
Continuous
 62
     1
100
AcDbLine
 10
150.0
 20
1320.0
 30
0.0
 11
170.0
 21
1320.0
 31
0.0
  0
LINE
  5
35CE
330
18
100
AcDbEntity
  8
WAKU
  6
Continuous
 62
     1
100
AcDbLine
 10
150.0
 20
1820.0
 30
0.0
 11
170.0
 21
1820.0
 31
0.0
  0
LINE
  5
35CF
330
18
100
AcDbEntity
  8
WAKU
  6
Continuous
 62
     1
100
AcDbLine
 10
150.0
 20
2320.0
 30
0.0
 11
170.0
 21
2320.0
 31
0.0
  0
LINE
  5
35D0
330
18
100
AcDbEntity
  8
WAKU
  6
Continuous
 62
     1
100
AcDbLine
 10
3650.0
 20
2820.0
 30
0.0
 11
3650.0
 21
2800.0
 31
0.0
  0
LINE
  5
35D1
330
18
100
AcDbEntity
  8
WAKU
  6
Continuous
 62
     1
100
AcDbLine
 10
3150.0
 20
2820.0
 30
0.0
 11
3150.0
 21
2800.0
 31
0.0
  0
LINE
  5
35D2
330
18
100
AcDbEntity
  8
WAKU
  6
Continuous
 62
     1
100
AcDbLine
 10
2650.0
 20
2820.0
 30
0.0
 11
2650.0
 21
2800.0
 31
0.0
  0
LINE
  5
35D3
330
18
100
AcDbEntity
  8
WAKU
  6
Continuous
 62
     1
100
AcDbLine
 10
2150.0
 20
2820.0
 30
0.0
 11
2150.0
 21
2800.0
 31
0.0
  0
LINE
  5
35D4
330
18
100
AcDbEntity
  8
WAKU
  6
Continuous
 62
     1
100
AcDbLine
 10
1650.0
 20
2820.0
 30
0.0
 11
1650.0
 21
2800.0
 31
0.0
  0
LINE
  5
35D5
330
18
100
AcDbEntity
  8
WAKU
  6
Continuous
 62
     1
100
AcDbLine
 10
1150.0
 20
2820.0
 30
0.0
 11
1150.0
 21
2800.0
 31
0.0
  0
LINE
  5
35D6
330
18
100
AcDbEntity
  8
WAKU
  6
Continuous
 62
     1
100
AcDbLine
 10
650.0
 20
2820.0
 30
0.0
 11
650.0
 21
2800.0
 31
0.0
  0
POINT
  5
35D7
330
18
100
AcDbEntity
  8
TEN
  6
Continuous
 62
     4
100
AcDbPoint
 10
1820.172203531769
 20
221.000000000001
 30
0.0
  0
TEXT
  5
35D8
330
18
100
AcDbEntity
  8
WAKU
  6
Continuous
 62
     2
100
AcDbText
 10
3084.0
 20
89.0
 30
0.0
 40
30.0
  1
記号
 41
0.98
  7
EXCADSTD
100
AcDbText
  0
LINE
  5
35D9
330
18
100
AcDbEntity
  8
WAKU
  6
Continuous
 62
     3
100
AcDbLine
 10
3074.999968
 20
51.0
 30
0.0
 11
3074.999968
 21
160.4999999999999
 31
0.0
  0
LINE
  5
35DA
330
18
100
AcDbEntity
  8
WAKU
  6
Continuous
 62
     5
100
AcDbLine
 10
1918.89537202802
 20
179.7759999999999
 30
0.0
 11
1920.05588952606
 21
180.9365174980419
 31
0.0
  0
CIRCLE
  5
35DB
330
18
100
AcDbEntity
  8
WAKU
  6
Continuous
 62
     2
100
AcDbCircle
 10
1740.0
 20
179.4999999999999
 30
0.0
 40
3.0
  0
CIRCLE
  5
35DC
330
18
100
AcDbEntity
  8
WAKU
  6
Continuous
 62
     2
100
AcDbCircle
 10
1680.0
 20
179.4999999999999
 30
0.0
 40
3.0
  0
TEXT
  5
35DD
330
18
100
AcDbEntity
  8
WAKU
  6
Continuous
 62
     2
100
AcDbText
 10
177.991667
 20
249.0
 30
0.0
 40
31.5
  1
変更記事
 41
0.8
  7
EXCADVERT
100
AcDbText
  0
LINE
  5
35DF
330
18
100
AcDbEntity
  8
WAKU
  6
Continuous
 62
     3
100
AcDbLine
 10
2549.999968
 20
160.4999999999999
 30
0.0
 11
4050.0
 21
160.4999999999999
 31
0.0
  0
LINE
  5
35E0
330
18
100
AcDbEntity
  8
WAKU
  6
DOT
 62
     3
100
AcDbLine
 10
1671.0
 20
213.75
 30
0.0
 11
1799.999975
 21
213.75
 31
0.0
  0
LINE
  5
35E1
330
18
100
AcDbEntity
  8
WAKU
  6
DOT
 62
     3
100
AcDbLine
 10
1671.0
 20
103.75
 30
0.0
 11
1799.999975
 21
103.75
 31
0.0
  0
LINE
  5
35E2
330
18
100
AcDbEntity
  8
WAKU
  6
Continuous
 62
     3
100
AcDbLine
 10
1401.0
 20
160.0
 30
0.0
 11
1799.999975
 21
160.0
 31
0.0
  0
LINE
  5
35E3
330
18
100
AcDbEntity
  8
WAKU
  6
DOT
 62
     3
100
AcDbLine
 10
210.0
 20
50.0
 30
0.0
 11
210.0
 21
270.0
 31
0.0
  0
LINE
  5
35E4
330
18
100
AcDbEntity
  8
WAKU
  6
DOT
 62
     3
100
AcDbLine
 10
210.0
 20
160.0
 30
0.0
 11
1401.0
 21
160.0
 31
0.0
  0
LINE
  5
35E5
330
18
100
AcDbEntity
  8
WAKU
  6
Continuous
 62
    11
100
AcDbLine
 10
150.0
 20
270.0
 30
0.0
 11
4050.0
 21
270.0
 31
0.0
  0
LINE
  5
35E6
330
18
100
AcDbEntity
  8
WAKU
  6
Continuous
 62
     3
100
AcDbLine
 10
1050.0
 20
270.0
 30
0.0
 11
1050.0
 21
50.0
 31
0.0
  0
LINE
  5
35E7
330
18
100
AcDbEntity
  8
WAKU
  6
Continuous
 62
     3
100
AcDbLine
 10
1400.0
 20
270.0
 30
0.0
 11
1400.0
 21
50.0
 31
0.0
  0
LINE
  5
35E8
330
18
100
AcDbEntity
  8
WAKU
  6
Continuous
 62
     3
100
AcDbLine
 10
1600.0
 20
270.0
 30
0.0
 11
1600.0
 21
50.0
 31
0.0
  0
LINE
  5
35E9
330
18
100
AcDbEntity
  8
WAKU
  6
Continuous
 62
     3
100
AcDbLine
 10
1799.999975
 20
270.0
 30
0.0
 11
1799.999975
 21
49.90000000000009
 31
0.0
  0
LINE
  5
35EA
330
18
100
AcDbEntity
  8
WAKU
  6
Continuous
 62
     3
100
AcDbLine
 10
2549.999968
 20
270.0
 30
0.0
 11
2549.999968
 21
50.0
 31
0.0
  0
TEXT
  5
35EB
330
18
100
AcDbEntity
  8
WAKU
  6
Continuous
 62
     2
100
AcDbText
 10
3310.0
 20
91.0
 30
0.0
 40
30.0
  1
製作数
 41
0.933333333333333
  7
EXCADSTD
100
AcDbText
  0
LINE
  5
35EC
330
18
100
AcDbEntity
  8
WAKU
  6
Continuous
 62
     3
100
AcDbLine
 10
3550.0
 20
160.4999999999999
 30
0.0
 11
3550.0
 21
50.0
 31
0.0
  0
LINE
  5
35ED
330
18
100
AcDbEntity
  8
WAKU
  6
Continuous
 62
     3
100
AcDbLine
 10
3300.0
 20
160.4999999999999
 30
0.0
 11
3300.0
 21
51.0
 31
0.0
  0
LINE
  5
35EE
330
18
100
AcDbEntity
  8
WAKU
  6
Continuous
 62
     3
100
AcDbLine
 10
3550.0
 20
270.0
 30
0.0
 11
3550.0
 21
160.4999999999999
 31
0.0
  0
TEXT
  5
35EF
330
18
100
AcDbEntity
  8
WAKU
  6
Continuous
 62
    11
100
AcDbText
 10
2002.0
 20
123.0
 30
0.0
 40
50.0
  1
エ－スライオン株式会社
 41
0.7636363636363642
  7
EXCADSTD
100
AcDbText
  0
TEXT
  5
35F0
330
18
100
AcDbEntity
  8
WAKU
  6
Continuous
 62
     2
100
AcDbText
 10
3559.0
 20
90.0
 30
0.0
 40
30.0
  1
図番
 41
0.98
  7
EXCADSTD
100
AcDbText
  0
TEXT
  5
35F1
330
18
100
AcDbEntity
  8
WAKU
  6
Continuous
 62
     2
100
AcDbText
 10
3504.0
 20
89.0
 30
0.0
 40
30.0
  1
面
 41
1.12
  7
EXCADSTD
100
AcDbText
  0
TEXT
  5
35F2
330
18
100
AcDbEntity
  8
WAKU
  6
Continuous
 62
     2
100
AcDbText
 10
3553.000031999998
 20
197.0000000000009
 30
0.0
 40
30.0
  1
工番
 41
0.98
  7
EXCADSTD
100
AcDbText
  0
TEXT
  5
35F3
330
18
100
AcDbEntity
  8
WAKU
  6
Continuous
 62
     2
100
AcDbText
 10
2563.0
 20
91.0
 30
0.0
 40
30.0
  1
品名
 41
0.98
  7
EXCADSTD
100
AcDbText
  0
TEXT
  5
35F4
330
18
100
AcDbEntity
  8
WAKU
  6
Continuous
 62
     2
100
AcDbText
 10
3500.000031999998
 20
197.0000000000009
 30
0.0
 40
30.0
  1
殿
 41
1.12
  7
EXCADSTD
100
AcDbText
  0
TEXT
  5
35F5
330
18
100
AcDbEntity
  8
WAKU
  6
Continuous
 62
     2
100
AcDbText
 10
2560.0
 20
200.0
 30
0.0
 40
30.0
  1
納入先
 41
0.933333333333333
  7
EXCADSTD
100
AcDbText
  0
TEXT
  5
35F6
330
18
100
AcDbEntity
  8
WAKU
  6
Continuous
 62
     2
100
AcDbText
 10
1607.0
 20
117.5
 30
0.0
 40
30.0
  1
検図
 41
0.84
  7
EXCADSTD
100
AcDbText
  0
TEXT
  5
35F7
330
18
100
AcDbEntity
  8
WAKU
  6
Continuous
 62
     2
100
AcDbText
 10
1607.0
 20
231.0
 30
0.0
 40
30.0
  1
製図
 41
0.84
  7
EXCADSTD
100
AcDbText
  0
TEXT
  5
35F8
330
18
100
AcDbEntity
  8
WAKU
  6
Continuous
 62
     2
100
AcDbText
 10
1406.0
 20
117.5
 30
0.0
 40
30.0
  1
縮尺
 41
0.84
  7
EXCADSTD
100
AcDbText
  0
TEXT
  5
35F9
330
18
100
AcDbEntity
  8
WAKU
  6
Continuous
 62
     2
100
AcDbText
 10
1408.0
 20
231.0
 30
0.0
 40
30.0
  1
形式
 41
0.84
  7
EXCADSTD
100
AcDbText
  0
TEXT
  5
35FA
330
18
100
AcDbEntity
  8
WAKU
  6
Continuous
 62
     2
100
AcDbText
 10
1057.0
 20
61.0
 30
0.0
 40
30.0
  1
内面
 41
0.84
  7
EXCADSTD
100
AcDbText
  0
TEXT
  5
35FB
330
18
100
AcDbEntity
  8
WAKU
  6
Continuous
 62
     2
100
AcDbText
 10
1055.0
 20
222.0
 30
0.0
 40
30.0
  1
塗装色（艶　　　　　　）
 41
0.84
  7
EXCADSTD
100
AcDbText
  0
LWPOLYLINE
  5
35FC
330
18
100
AcDbEntity
  8
WAKU
  6
Continuous
 62
    11
100
AcDbPolyline
 90
        5
 70
     0
 43
0.0
 10
150.0
 20
50.0
 10
4050.0
 20
50.0
 10
4050.0
 20
2820.0
 10
150.0
 20
2820.0
 10
150.0
 20
50.0
  0
LWPOLYLINE
  5
35FE
102
{ACAD_REACTORS
330
35FF
102
}
330
18
100
AcDbEntity
  8
WAKU
  6
Continuous
 62
     1
100
AcDbPolyline
 90
        6
 70
     1
 43
0.0
 10
1876.16089539752
 20
150.592
 10
1904.538815828732
 20
150.592
 10
1896.114120700712
 20
136.0
 10
1849.999999999999
 20
136.0
 10
1873.057060350359
 20
175.9359999999999
 10
1890.793260619863
 20
175.9359999999999
  0
HATCH
  5
35FF
330
18
100
AcDbEntity
  8
WAKU-MOJI
  6
Continuous
100
AcDbHatch
 10
0.0
 20
0.0
 30
0.0
210
0.0
220
0.0
230
1.0
  2
SOLID
 70
     1
 71
     1
 91
        1
 92
        1
 93
        6
 72
     1
 10
1876.16089539752
 20
150.592
 11
1904.538815828732
 21
150.592
 72
     1
 10
1904.538815828732
 20
150.592
 11
1896.114120700712
 21
136.0
 72
     1
 10
1896.114120700712
 20
136.0
 11
1849.999999999999
 21
136.0
 72
     1
 10
1849.999999999999
 20
136.0
 11
1873.057060350359
 21
175.9359999999999
 72
     1
 10
1873.057060350359
 20
175.9359999999999
 11
1890.793260619863
 21
175.9359999999999
 72
     1
 10
1890.793260619863
 20
175.9359999999999
 11
1876.16089539752
 21
150.592
 97
        1
330
35FE
 75
     0
 76
     1
 98
        1
 10
0.0
 20
0.0
  0
LWPOLYLINE
  5
3600
102
{ACAD_REACTORS
330
3605
102
}
330
18
100
AcDbEntity
  8
WAKU
  6
Continuous
 62
     5
100
AcDbPolyline
 90
        4
 70
     1
 43
0.0
 10
1885.69691908368
 20
194.368
 10
1912.301219487945
 20
194.368
 10
1907.867169420561
 20
202.048
 10
1881.262869016304
 20
202.048
  0
LWPOLYLINE
  5
3601
102
{ACAD_REACTORS
330
3605
102
}
330
18
100
AcDbEntity
  8
WAKU
  6
Continuous
 62
     5
100
AcDbPolyline
 90
        4
 70
     1
 43
0.0
 10
1894.106923175614
 20
179.8014456209069
 10
1920.711223579879
 20
179.8014456209069
 10
1916.277173512495
 20
187.4814456209069
 10
1889.672873108239
 20
187.4814456209069
  0
LWPOLYLINE
  5
3602
102
{ACAD_REACTORS
330
3605
102
}
330
18
100
AcDbEntity
  8
WAKU
  6
Continuous
 62
     5
100
AcDbPolyline
 90
        4
 70
     1
 43
0.0
 10
1902.581517629863
 20
165.224799936228
 10
1929.185818034128
 20
165.224799936228
 10
1924.751767966744
 20
172.9047999362279
 10
1898.147467562489
 20
172.9047999362279
  0
LWPOLYLINE
  5
3603
102
{ACAD_REACTORS
330
3605
102
}
330
18
100
AcDbEntity
  8
WAKU
  6
Continuous
 62
     5
100
AcDbPolyline
 90
        4
 70
     1
 43
0.0
 10
1919.480960321884
 20
135.9541065740468
 10
1946.085260726149
 20
135.9541065740468
 10
1941.651210658765
 20
143.6341065740469
 10
1915.04691025451
 20
143.6341065740469
  0
LWPOLYLINE
  5
3604
102
{ACAD_REACTORS
330
3605
102
}
330
18
100
AcDbEntity
  8
WAKU
  6
Continuous
 62
     5
100
AcDbPolyline
 90
        4
 70
     1
 43
0.0
 10
1910.954438975873
 20
150.722474757159
 10
1937.558739380138
 20
150.722474757159
 10
1933.124689312755
 20
158.402474757159
 10
1906.5203889085
 20
158.402474757159
  0
HATCH
  5
3605
330
18
100
AcDbEntity
  8
WAKU-MOJI
  6
Continuous
100
AcDbHatch
 10
0.0
 20
0.0
 30
0.0
210
0.0
220
0.0
230
1.0
  2
SOLID
 70
     1
 71
     1
 91
        5
 92
        1
 93
        4
 72
     1
 10
1919.480960321884
 20
135.9541065740468
 11
1946.085260726149
 21
135.9541065740468
 72
     1
 10
1946.085260726149
 20
135.9541065740468
 11
1941.651210658765
 21
143.6341065740469
 72
     1
 10
1941.651210658765
 20
143.6341065740469
 11
1915.04691025451
 21
143.6341065740469
 72
     1
 10
1915.04691025451
 20
143.6341065740469
 11
1919.480960321884
 21
135.9541065740468
 97
        1
330
3603
 92
        1
 93
        4
 72
     1
 10
1910.954438975873
 20
150.722474757159
 11
1937.558739380138
 21
150.722474757159
 72
     1
 10
1937.558739380138
 20
150.722474757159
 11
1933.124689312755
 21
158.402474757159
 72
     1
 10
1933.124689312755
 20
158.402474757159
 11
1906.5203889085
 21
158.402474757159
 72
     1
 10
1906.5203889085
 20
158.402474757159
 11
1910.954438975873
 21
150.722474757159
 97
        1
330
3604
 92
        1
 93
        4
 72
     1
 10
1902.581517629863
 20
165.224799936228
 11
1929.185818034128
 21
165.224799936228
 72
     1
 10
1929.185818034128
 20
165.224799936228
 11
1924.751767966744
 21
172.9047999362279
 72
     1
 10
1924.751767966744
 20
172.9047999362279
 11
1898.147467562489
 21
172.9047999362279
 72
     1
 10
1898.147467562489
 20
172.9047999362279
 11
1902.581517629863
 21
165.224799936228
 97
        1
330
3602
 92
        1
 93
        4
 72
     1
 10
1894.106923175614
 20
179.8014456209069
 11
1920.711223579879
 21
179.8014456209069
 72
     1
 10
1920.711223579879
 20
179.8014456209069
 11
1916.277173512495
 21
187.4814456209069
 72
     1
 10
1916.277173512495
 20
187.4814456209069
 11
1889.672873108239
 21
187.4814456209069
 72
     1
 10
1889.672873108239
 20
187.4814456209069
 11
1894.106923175614
 21
179.8014456209069
 97
        1
330
3601
 92
        1
 93
        4
 72
     1
 10
1885.69691908368
 20
194.368
 11
1912.301219487945
 21
194.368
 72
     1
 10
1912.301219487945
 20
194.368
 11
1907.867169420561
 21
202.048
 72
     1
 10
1907.867169420561
 20
202.048
 11
1881.262869016304
 21
202.048
 72
     1
 10
1881.262869016304
 20
202.048
 11
1885.69691908368
 21
194.368
 97
        1
330
3600
 75
     0
 76
     1
 98
        1
 10
0.0
 20
0.0
  0
LWPOLYLINE
  5
3606
102
{ACAD_REACTORS
330
3607
102
}
330
18
100
AcDbEntity
  8
WAKU
  6
Continuous
 62
     7
100
AcDbPolyline
 90
        7
 70
     1
 43
0.0
 10
1843.0
 20
126.5
 10
1846.499999999999
 20
126.5
 10
1853.5
 20
102.0
 10
1850.0
 20
102.0
 10
1844.75
 20
120.375
 10
1839.5
 20
102.0
 10
1836.0
 20
102.0
  0
HATCH
  5
3607
330
18
100
AcDbEntity
  8
WAKU-MOJI
  6
Continuous
100
AcDbHatch
 10
0.0
 20
0.0
 30
0.0
210
0.0
220
0.0
230
1.0
  2
SOLID
 70
     1
 71
     1
 91
        2
 92
        1
 93
       69
 72
     1
 10
1869.39
 20
108.4624190070458
 11
1868.950466641679
 21
107.893481361466
 72
     1
 10
1868.950466641679
 20
107.893481361466
 11
1868.195926382809
 21
107.118483114415
 72
     1
 10
1868.195926382809
 20
107.118483114415
 11
1867.36244213045
 21
106.4822917315619
 72
     1
 10
1867.36244213045
 20
106.4822917315619
 11
1866.466236707499
 21
105.9972899545159
 72
     1
 10
1866.466236707499
 20
105.9972899545159
 11
1865.524753733089
 21
105.6729177911879
 72
     1
 10
1865.524753733089
 20
105.6729177911879
 11
1864.55631810239
 21
105.5154887767669
 72
     1
 10
1864.55631810239
 20
105.5154887767669
 11
1863.579779313388
 21
105.5280670879479
 72
     1
 10
1863.579779313388
 20
105.5280670879479
 11
1862.61414458282
 21
105.71040790221
 72
     1
 10
1862.61414458282
 20
105.71040790221
 11
1861.6782088923
 21
106.058962163013
 72
     1
 10
1861.6782088923
 20
106.058962163013
 11
1860.79018916545
 21
106.5669456581459
 72
     1
 10
1860.79018916545
 20
106.5669456581459
 11
1859.967369696138
 21
107.224471066698
 72
     1
 10
1859.967369696138
 20
107.224471066698
 11
1859.2257657294
 21
108.018740404517
 72
     1
 10
1859.2257657294
 20
108.018740404517
 11
1858.57981174287
 21
108.934294122408
 72
     1
 10
1858.57981174287
 20
108.934294122408
 11
1858.04208049616
 21
109.9533120086809
 72
     1
 10
1858.04208049616
 20
109.9533120086809
 11
1857.6230383163
 21
111.055960039295
 72
     1
 10
1857.6230383163
 20
111.055960039295
 11
1857.33084138268
 21
112.220776424578
 72
     1
 10
1857.33084138268
 20
112.220776424578
 11
1857.17117697625
 21
113.425089338548
 72
     1
 10
1857.17117697625
 20
113.425089338548
 11
1857.14715278305
 21
114.6454582002218
 72
     1
 10
1857.14715278305
 20
114.6454582002218
 11
1857.259236406689
 21
115.858129917856
 72
     1
 10
1857.259236406689
 20
115.858129917856
 11
1857.50524626691
 21
117.0395012158589
 72
     1
 10
1857.50524626691
 20
117.0395012158589
 11
1857.880394061639
 21
118.1665780457059
 72
     1
 10
1857.880394061639
 20
118.1665780457059
 11
1858.37737796575
 21
119.2174231389339
 72
     1
 10
1858.37737796575
 20
119.2174231389339
 11
1858.98652475288
 21
120.171582991124
 72
     1
 10
1858.98652475288
 20
120.171582991124
 11
1859.695978073699
 21
121.0104859660919
 72
     1
 10
1859.695978073699
 20
121.0104859660919
 11
1860.49192922631
 21
121.717803771669
 72
     1
 10
1860.49192922631
 20
121.717803771669
 11
1861.35888592692
 21
122.2797692713309
 72
     1
 10
1861.35888592692
 20
122.2797692713309
 11
1862.279973849489
 21
122.6854444458538
 72
     1
 10
1862.279973849489
 20
122.6854444458538
 11
1863.23726506533
 21
122.9269332894139
 72
     1
 10
1863.23726506533
 20
122.9269332894139
 11
1864.21212698983
 21
122.999535496362
 72
     1
 10
1864.21212698983
 20
122.999535496362
 11
1865.18558504451
 21
122.9018379473209
 72
     1
 10
1865.18558504451
 20
122.9018379473209
 11
1866.138691975639
 21
122.6357422139559
 72
     1
 10
1866.138691975639
 20
122.6357422139559
 11
1867.05289664094
 21
122.2064275470369
 72
     1
 10
1867.05289664094
 20
122.2064275470369
 11
1867.910405086499
 21
121.622250068216
 72
     1
 10
1867.910405086499
 20
121.622250068216
 11
1868.694526885819
 21
120.894580127628
 72
     1
 10
1868.694526885819
 20
120.894580127628
 11
1869.39
 21
120.0375809929539
 72
     1
 10
1869.39
 20
120.0375809929539
 11
1869.39
 21
124.8588111963589
 72
     1
 10
1869.39
 20
124.8588111963589
 11
1868.15817603983
 21
125.5675242732629
 72
     1
 10
1868.15817603983
 20
125.5675242732629
 11
1866.85759997358
 21
126.0825913720409
 72
     1
 10
1866.85759997358
 20
126.0825913720409
 11
1865.51052501831
 21
126.3951995518288
 72
     1
 10
1865.51052501831
 20
126.3951995518288
 11
1864.14
 21
126.5
 72
     1
 10
1864.14
 20
126.5
 11
1862.769474981689
 21
126.3951995518288
 72
     1
 10
1862.769474981689
 20
126.3951995518288
 11
1861.422400026419
 21
126.0825913720409
 72
     1
 10
1861.422400026419
 20
126.0825913720409
 11
1860.121823960168
 21
125.5675242732629
 72
     1
 10
1860.121823960168
 20
125.5675242732629
 11
1858.89
 21
124.8588111963589
 72
     1
 10
1858.89
 20
124.8588111963589
 11
1857.74800499541
 21
123.968578418568
 72
     1
 10
1857.74800499541
 20
123.968578418568
 11
1856.71537879754
 21
122.912058069535
 72
     1
 10
1856.71537879754
 20
122.912058069535
 11
1855.809789926939
 21
121.7073275053569
 72
     1
 10
1855.809789926939
 20
121.7073275053569
 11
1855.04673326026
 21
120.375
 72
     1
 10
1855.04673326026
 20
120.375
 11
1854.439264908629
 21
118.9378720464719
 72
     1
 10
1854.439264908629
 20
118.9378720464719
 11
1853.99777882397
 21
117.4205333025059
 72
     1
 10
1853.99777882397
 20
117.4205333025059
 11
1853.72982895558
 21
115.8489458546959
 72
     1
 10
1853.72982895558
 20
115.8489458546959
 11
1853.64
 21
114.25
 72
     1
 10
1853.64
 20
114.25
 11
1853.72982895558
 21
112.6510541453049
 72
     1
 10
1853.72982895558
 20
112.6510541453049
 11
1853.99777882397
 21
111.0794666974939
 72
     1
 10
1853.99777882397
 20
111.0794666974939
 11
1854.439264908629
 21
109.5621279535279
 72
     1
 10
1854.439264908629
 20
109.5621279535279
 11
1855.04673326026
 21
108.125
 72
     1
 10
1855.04673326026
 20
108.125
 11
1855.809789926939
 21
106.7926724946429
 72
     1
 10
1855.809789926939
 20
106.7926724946429
 11
1856.71537879754
 21
105.5879419304649
 72
     1
 10
1856.71537879754
 20
105.5879419304649
 11
1857.74800499541
 21
104.5314215814318
 72
     1
 10
1857.74800499541
 20
104.5314215814318
 11
1858.89
 21
103.6411888036409
 72
     1
 10
1858.89
 20
103.6411888036409
 11
1860.121823960168
 21
102.9324757267369
 72
     1
 10
1860.121823960168
 20
102.9324757267369
 11
1861.422400026419
 21
102.4174086279589
 72
     1
 10
1861.422400026419
 20
102.4174086279589
 11
1862.769474981689
 21
102.104800448171
 72
     1
 10
1862.769474981689
 20
102.104800448171
 11
1864.14
 21
102.0
 72
     1
 10
1864.14
 20
102.0
 11
1865.51052501831
 21
102.104800448171
 72
     1
 10
1865.51052501831
 20
102.104800448171
 11
1866.85759997358
 21
102.4174086279589
 72
     1
 10
1866.85759997358
 20
102.4174086279589
 11
1868.15817603983
 21
102.9324757267369
 72
     1
 10
1868.15817603983
 20
102.9324757267369
 11
1869.39
 21
103.6411888036409
 72
     1
 10
1869.39
 20
103.6411888036409
 11
1869.39
 21
108.4624190070458
 97
        1
330
35A4
 92
        1
 93
        7
 72
     1
 10
1843.0
 20
126.5
 11
1846.499999999999
 21
126.5
 72
     1
 10
1846.499999999999
 20
126.5
 11
1853.5
 21
102.0
 72
     1
 10
1853.5
 20
102.0
 11
1850.0
 21
102.0
 72
     1
 10
1850.0
 20
102.0
 11
1844.75
 21
120.375
 72
     1
 10
1844.75
 20
120.375
 11
1839.5
 21
102.0
 72
     1
 10
1839.5
 20
102.0
 11
1836.0
 21
102.0
 72
     1
 10
1836.0
 20
102.0
 11
1843.0
 21
126.5
 97
        1
330
3606
 75
     0
 76
     1
 98
        1
 10
0.0
 20
0.0
  0
HATCH
  5
3608
330
18
100
AcDbEntity
  8
WAKU-MOJI
  6
Continuous
100
AcDbHatch
 10
0.0
 20
0.0
 30
0.0
210
0.0
220
0.0
230
1.0
  2
SOLID
 70
     1
 71
     1
 91
        6
 92
        1
 93
       12
 72
     1
 10
1888.5
 20
102.0
 11
1874.5
 21
102.0
 72
     1
 10
1874.5
 20
102.0
 11
1874.5
 21
126.5
 72
     1
 10
1874.5
 20
126.5
 11
1888.5
 21
126.5
 72
     1
 10
1888.5
 20
126.5
 11
1888.5
 21
123.0
 72
     1
 10
1888.5
 20
123.0
 11
1878.0
 21
123.0
 72
     1
 10
1878.0
 20
123.0
 11
1878.0
 21
116.0
 72
     1
 10
1878.0
 20
116.0
 11
1888.5
 21
116.0
 72
     1
 10
1888.5
 20
116.0
 11
1888.5
 21
112.5
 72
     1
 10
1888.5
 20
112.5
 11
1878.0
 21
112.5
 72
     1
 10
1878.0
 20
112.5
 11
1878.0
 21
105.4999999999999
 72
     1
 10
1878.0
 20
105.4999999999999
 11
1888.5
 21
105.4999999999999
 72
     1
 10
1888.5
 20
105.4999999999999
 11
1888.5
 21
102.0
 97
        1
330
35AA
 92
        1
 93
        6
 72
     1
 10
1902.5
 20
126.5
 11
1902.5
 21
105.4999999999999
 72
     1
 10
1902.5
 20
105.4999999999999
 11
1909.499999999999
 21
105.4999999999999
 72
     1
 10
1909.499999999999
 20
105.4999999999999
 11
1909.499999999999
 21
102.0
 72
     1
 10
1909.499999999999
 20
102.0
 11
1899.0
 21
102.0
 72
     1
 10
1899.0
 20
102.0
 11
1899.0
 21
126.5
 72
     1
 10
1899.0
 20
126.5
 11
1902.5
 21
126.5
 97
        1
330
35A9
 92
        1
 93
        4
 72
     1
 10
1913.0
 20
126.5
 11
1913.0
 21
102.0
 72
     1
 10
1913.0
 20
102.0
 11
1916.5
 21
102.0
 72
     1
 10
1916.5
 20
102.0
 11
1916.5
 21
126.5
 72
     1
 10
1916.5
 20
126.5
 11
1913.0
 21
126.5
 97
        1
330
35A8
 92
        1
 93
       10
 72
     1
 10
1937.5
 20
102.0
 11
1941.0
 21
102.0
 72
     1
 10
1941.0
 20
102.0
 11
1941.0
 21
119.5
 72
     1
 10
1941.0
 20
119.5
 11
1951.5
 21
102.0
 72
     1
 10
1951.5
 20
102.0
 11
1955.0
 21
102.0
 72
     1
 10
1955.0
 20
102.0
 11
1955.0
 21
126.5
 72
     1
 10
1955.0
 20
126.5
 11
1951.5
 21
126.5
 72
     1
 10
1951.5
 20
126.5
 11
1951.5
 21
109.0
 72
     1
 10
1951.5
 20
109.0
 11
1941.0
 21
126.5
 72
     1
 10
1941.0
 20
126.5
 11
1937.5
 21
126.5
 72
     1
 10
1937.5
 20
126.5
 11
1937.5
 21
102.0
 97
        1
330
35A7
 92
        1
 93
       48
 72
     1
 10
1927.0
 20
126.5
 11
1925.85789581807
 21
126.3951995518288
 72
     1
 10
1925.85789581807
 20
126.3951995518288
 11
1924.73533335535
 21
126.0825913720409
 72
     1
 10
1924.73533335535
 20
126.0825913720409
 11
1923.65151996681
 21
125.5675242732629
 72
     1
 10
1923.65151996681
 20
125.5675242732629
 11
1922.625
 21
124.8588111963589
 72
     1
 10
1922.625
 20
124.8588111963589
 11
1921.67333749617
 21
123.968578418568
 72
     1
 10
1921.67333749617
 20
123.968578418568
 11
1920.81281566462
 21
122.912058069535
 72
     1
 10
1920.81281566462
 20
122.912058069535
 11
1920.05815827245
 21
121.7073275053569
 72
     1
 10
1920.05815827245
 20
121.7073275053569
 11
1919.42227771689
 21
120.375
 72
     1
 10
1919.42227771689
 20
120.375
 11
1918.91605409053
 21
118.9378720464719
 72
     1
 10
1918.91605409053
 20
118.9378720464719
 11
1918.54814901997
 21
117.4205333025059
 72
     1
 10
1918.54814901997
 20
117.4205333025059
 11
1918.324857462978
 21
115.8489458546959
 72
     1
 10
1918.324857462978
 20
115.8489458546959
 11
1918.25
 21
114.25
 72
     1
 10
1918.25
 20
114.25
 11
1918.324857462978
 21
112.6510541453038
 72
     1
 10
1918.324857462978
 20
112.6510541453038
 11
1918.54814901997
 21
111.0794666974939
 72
     1
 10
1918.54814901997
 20
111.0794666974939
 11
1918.91605409053
 21
109.5621279535279
 72
     1
 10
1918.91605409053
 20
109.5621279535279
 11
1919.42227771689
 21
108.125
 72
     1
 10
1919.42227771689
 20
108.125
 11
1920.05815827245
 21
106.7926724946429
 72
     1
 10
1920.05815827245
 20
106.7926724946429
 11
1920.81281566462
 21
105.5879419304649
 72
     1
 10
1920.81281566462
 20
105.5879419304649
 11
1921.67333749617
 21
104.5314215814318
 72
     1
 10
1921.67333749617
 20
104.5314215814318
 11
1922.625
 21
103.6411888036409
 72
     1
 10
1922.625
 20
103.6411888036409
 11
1923.65151996681
 21
102.9324757267369
 72
     1
 10
1923.65151996681
 20
102.9324757267369
 11
1924.73533335535
 21
102.4174086279589
 72
     1
 10
1924.73533335535
 20
102.4174086279589
 11
1925.85789581807
 21
102.104800448171
 72
     1
 10
1925.85789581807
 20
102.104800448171
 11
1927.0
 21
102.0
 72
     1
 10
1927.0
 20
102.0
 11
1928.142104181929
 21
102.104800448171
 72
     1
 10
1928.142104181929
 20
102.104800448171
 11
1929.264666644649
 21
102.4174086279589
 72
     1
 10
1929.264666644649
 20
102.4174086279589
 11
1930.348480033189
 21
102.9324757267369
 72
     1
 10
1930.348480033189
 20
102.9324757267369
 11
1931.375
 21
103.6411888036409
 72
     1
 10
1931.375
 20
103.6411888036409
 11
1932.326662503829
 21
104.5314215814318
 72
     1
 10
1932.326662503829
 20
104.5314215814318
 11
1933.18718433538
 21
105.5879419304649
 72
     1
 10
1933.18718433538
 20
105.5879419304649
 11
1933.94184172755
 21
106.7926724946429
 72
     1
 10
1933.94184172755
 20
106.7926724946429
 11
1934.577722283109
 21
108.125
 72
     1
 10
1934.577722283109
 20
108.125
 11
1935.08394590947
 21
109.5621279535279
 72
     1
 10
1935.08394590947
 20
109.5621279535279
 11
1935.45185098003
 21
111.0794666974939
 72
     1
 10
1935.45185098003
 20
111.0794666974939
 11
1935.67514253702
 21
112.6510541453038
 72
     1
 10
1935.67514253702
 20
112.6510541453038
 11
1935.75
 21
114.25
 72
     1
 10
1935.75
 20
114.25
 11
1935.67514253702
 21
115.8489458546959
 72
     1
 10
1935.67514253702
 20
115.8489458546959
 11
1935.45185098003
 21
117.4205333025059
 72
     1
 10
1935.45185098003
 20
117.4205333025059
 11
1935.08394590947
 21
118.9378720464719
 72
     1
 10
1935.08394590947
 20
118.9378720464719
 11
1934.577722283109
 21
120.375
 72
     1
 10
1934.577722283109
 20
120.375
 11
1933.94184172755
 21
121.7073275053569
 72
     1
 10
1933.94184172755
 20
121.7073275053569
 11
1933.18718433538
 21
122.912058069535
 72
     1
 10
1933.18718433538
 20
122.912058069535
 11
1932.326662503829
 21
123.968578418568
 72
     1
 10
1932.326662503829
 20
123.968578418568
 11
1931.375
 21
124.8588111963589
 72
     1
 10
1931.375
 20
124.8588111963589
 11
1930.348480033189
 21
125.5675242732629
 72
     1
 10
1930.348480033189
 20
125.5675242732629
 11
1929.264666644649
 21
126.0825913720409
 72
     1
 10
1929.264666644649
 20
126.0825913720409
 11
1928.142104181929
 21
126.3951995518288
 72
     1
 10
1928.142104181929
 20
126.3951995518288
 11
1927.0
 21
126.5
 97
        1
330
35A6
 92
       16
 93
       45
 72
     1
 10
1932.25
 20
114.25
 11
1932.19890736089
 21
115.4677646334009
 72
     1
 10
1932.19890736089
 20
115.4677646334009
 11
1932.04662390368
 21
116.6618268633989
 72
     1
 10
1932.04662390368
 20
116.6618268633989
 11
1931.79611365262
 21
117.8089456269129
 72
     1
 10
1931.79611365262
 20
117.8089456269129
 11
1931.45225250482
 21
118.8867935620409
 72
     1
 10
1931.45225250482
 20
118.8867935620409
 11
1931.02173332638
 21
119.8743915847568
 72
     1
 10
1931.02173332638
 20
119.8743915847568
 11
1930.512935683379
 21
120.7525172229269
 72
     1
 10
1930.512935683379
 20
120.7525172229269
 11
1929.935762743219
 21
121.504078759857
 72
     1
 10
1929.935762743219
 20
121.504078759857
 11
1929.301448520639
 21
122.114447905118
 72
     1
 10
1929.301448520639
 20
122.114447905118
 11
1928.62233922047
 21
122.571744517583
 72
     1
 10
1928.62233922047
 20
122.571744517583
 11
1927.911652932749
 21
122.8670678388569
 72
     1
 10
1927.911652932749
 20
122.8670678388569
 11
1927.183222357689
 21
122.9946697364169
 72
     1
 10
1927.183222357689
 20
122.9946697364169
 11
1926.45122556785
 21
122.9520665844719
 72
     1
 10
1926.45122556785
 20
122.9520665844719
 11
1925.729910048099
 21
122.740087604915
 72
     1
 10
1925.729910048099
 20
122.740087604915
 11
1925.03331538457
 21
122.3628587274589
 72
     1
 10
1925.03331538457
 20
122.3628587274589
 11
1924.375
 21
121.8277222831138
 72
     1
 10
1924.375
 20
121.8277222831138
 11
1923.767777254538
 21
121.145094094059
 72
     1
 10
1923.767777254538
 20
121.145094094059
 11
1923.223466048219
 21
120.328260741516
 72
     1
 10
1923.223466048219
 20
120.328260741516
 11
1922.752660779529
 21
119.3931209575589
 72
     1
 10
1922.752660779529
 20
119.3931209575589
 11
1922.36452513749
 21
118.357876174377
 72
     1
 10
1922.36452513749
 20
118.357876174377
 11
1922.066613740869
 21
117.2426762540998
 72
     1
 10
1922.066613740869
 20
117.2426762540998
 11
1921.864725096148
 21
116.0692272946549
 72
     1
 10
1921.864725096148
 20
116.0692272946549
 11
1921.762788736138
 21
114.8603691452608
 72
     1
 10
1921.762788736138
 20
114.8603691452608
 11
1921.762788736138
 21
113.6396308547388
 72
     1
 10
1921.762788736138
 20
113.6396308547388
 11
1921.864725096148
 21
112.430772705345
 72
     1
 10
1921.864725096148
 20
112.430772705345
 11
1922.066613740869
 21
111.2573237458999
 72
     1
 10
1922.066613740869
 20
111.2573237458999
 11
1922.36452513749
 21
110.142123825624
 72
     1
 10
1922.36452513749
 20
110.142123825624
 11
1922.752660779529
 21
109.106879042441
 72
     1
 10
1922.752660779529
 20
109.106879042441
 11
1923.223466048219
 21
108.171739258484
 72
     1
 10
1923.223466048219
 20
108.171739258484
 11
1923.767777254538
 21
107.3549059059409
 72
     1
 10
1923.767777254538
 20
107.3549059059409
 11
1924.375
 21
106.6722777168859
 72
     1
 10
1924.375
 20
106.6722777168859
 11
1925.03331538457
 21
106.137141272541
 72
     1
 10
1925.03331538457
 20
106.137141272541
 11
1925.729910048099
 21
105.7599123950849
 72
     1
 10
1925.729910048099
 20
105.7599123950849
 11
1926.45122556785
 21
105.5479334155279
 72
     1
 10
1926.45122556785
 20
105.5479334155279
 11
1927.183222357689
 21
105.5053302635828
 72
     1
 10
1927.183222357689
 20
105.5053302635828
 11
1927.911652932749
 21
105.632932161143
 72
     1
 10
1927.911652932749
 20
105.632932161143
 11
1928.62233922047
 21
105.9282554824169
 72
     1
 10
1928.62233922047
 20
105.9282554824169
 11
1929.301448520639
 21
106.3855520948819
 72
     1
 10
1929.301448520639
 20
106.3855520948819
 11
1929.935762743219
 21
106.9959212401429
 72
     1
 10
1929.935762743219
 20
106.9959212401429
 11
1930.512935683379
 21
107.747482777073
 72
     1
 10
1930.512935683379
 20
107.747482777073
 11
1931.02173332638
 21
108.625608415243
 72
     1
 10
1931.02173332638
 20
108.625608415243
 11
1931.45225250482
 21
109.6132064379599
 72
     1
 10
1931.45225250482
 20
109.6132064379599
 11
1931.79611365262
 21
110.6910543730869
 72
     1
 10
1931.79611365262
 20
110.6910543730869
 11
1932.04662390368
 21
111.838173136601
 72
     1
 10
1932.04662390368
 20
111.838173136601
 11
1932.19890736089
 21
113.032235366599
 72
     1
 10
1932.19890736089
 20
113.032235366599
 11
1932.25
 21
114.25
 97
        1
330
35A5
 75
     0
 76
     1
 98
        1
 10
0.0
 20
0.0
  0
TEXT
  5
3609
330
18
100
AcDbEntity
  8
WAKU-MOJI
  6
Continuous
100
AcDbText
 10
2785.6
 20
191.0
 30
0.0
 40
40.0
  1
内部雷保護システム(電力ＴＴ系統図）
 41
0.7
  7
M7
 72
     1
 11
3074.0
 21
211.0
 31
0.0
100
AcDbText
 73
     2
  0
LINE
  5
3D8E
330
18
100
AcDbEntity
  8
1
  6
Continuous
100
AcDbLine
 10
2350.0
 20
1950.0
 30
0.0
 11
2450.0
 21
1950.0
 31
0.0
  0
LINE
  5
3D8F
330
18
100
AcDbEntity
  8
1
  6
Continuous
100
AcDbLine
 10
2150.0
 20
1950.0
 30
0.0
 11
2250.0
 21
1950.0
 31
0.0
  0
LINE
  5
3D90
330
18
100
AcDbEntity
  8
1
  6
Continuous
100
AcDbLine
 10
2150.0
 20
2050.0
 30
0.0
 11
2150.0
 21
1950.0
 31
0.0
  0
CIRCLE
  5
3D91
330
18
100
AcDbEntity
  8
1
  6
Continuous
100
AcDbCircle
 10
2150.0
 20
2050.0
 30
0.0
 40
2.5
  0
LINE
  5
3DA1
330
18
100
AcDbEntity
  8
1
  6
Continuous
100
AcDbLine
 10
2250.0
 20
2050.0
 30
0.0
 11
2150.0
 21
2050.0
 31
0.0
  0
LINE
  5
3DA2
330
18
100
AcDbEntity
  8
1
  6
Continuous
100
AcDbLine
 10
1150.0
 20
2050.0
 30
0.0
 11
1350.0
 21
2050.0
 31
0.0
  0
LINE
  5
3DA7
330
18
100
AcDbEntity
  8
1
  6
Continuous
100
AcDbLine
 10
1450.0
 20
2050.0
 30
0.0
 11
2000.0
 21
2050.0
 31
0.0
  0
LINE
  5
3DA9
330
18
100
AcDbEntity
  8
1
  6
Continuous
100
AcDbLine
 10
2000.0
 20
2050.0
 30
0.0
 11
2150.0
 21
2050.0
 31
0.0
  0
CIRCLE
  5
3DC9
330
18
100
AcDbEntity
  8
1
  6
Continuous
100
AcDbCircle
 10
600.0
 20
2500.0
 30
0.0
 40
5.0
  0
CIRCLE
  5
3DCA
330
18
100
AcDbEntity
  8
1
  6
Continuous
100
AcDbCircle
 10
725.0
 20
2500.0
 30
0.0
 40
5.0
  0
LWPOLYLINE
  5
3DCB
330
18
100
AcDbEntity
  8
1
  6
Continuous
100
AcDbPolyline
 90
        4
 70
     1
 43
0.0
 10
712.5
 20
2525.0
 10
800.0
 20
2525.0
 10
800.0
 20
2475.0
 10
712.5
 20
2475.0
  0
LINE
  5
3DCC
330
18
100
AcDbEntity
  8
1
  6
Continuous
100
AcDbLine
 10
725.0
 20
2500.0
 30
0.0
 11
600.0
 21
2500.0
 31
0.0
  0
CIRCLE
  5
3DCD
330
18
100
AcDbEntity
  8
1
  6
Continuous
100
AcDbCircle
 10
787.5
 20
2500.0
 30
0.0
 40
5.0
  0
LINE
  5
3DD7
330
18
100
AcDbEntity
  8
1
  6
Continuous
100
AcDbLine
 10
1350.0
 20
2025.0
 30
0.0
 11
1425.0
 21
2050.0
 31
0.0
  0
LINE
  5
3DD8
330
18
100
AcDbEntity
  8
1
  6
Continuous
100
AcDbLine
 10
1362.5
 20
2037.5
 30
0.0
 11
1337.5
 21
2062.5
 31
0.0
  0
LINE
  5
3DD9
330
18
100
AcDbEntity
  8
1
  6
Continuous
100
AcDbLine
 10
1337.5
 20
2037.5
 30
0.0
 11
1362.5
 21
2062.5
 31
0.0
  0
LINE
  5
3DDA
330
18
100
AcDbEntity
  8
1
  6
Continuous
100
AcDbLine
 10
1425.0
 20
2050.0
 30
0.0
 11
1450.0
 21
2050.0
 31
0.0
  0
LINE
  5
3DE7
330
18
100
AcDbEntity
  8
1
  6
Continuous
100
AcDbLine
 10
2250.0
 20
2025.0
 30
0.0
 11
2325.0
 21
2050.0
 31
0.0
  0
LINE
  5
3DE8
330
18
100
AcDbEntity
  8
1
  6
Continuous
100
AcDbLine
 10
2262.5
 20
2037.5
 30
0.0
 11
2237.5
 21
2062.5
 31
0.0
  0
LINE
  5
3DE9
330
18
100
AcDbEntity
  8
1
  6
Continuous
100
AcDbLine
 10
2237.5
 20
2037.5
 30
0.0
 11
2262.5
 21
2062.5
 31
0.0
  0
LINE
  5
3DEA
330
18
100
AcDbEntity
  8
1
  6
Continuous
100
AcDbLine
 10
2325.0
 20
2050.0
 30
0.0
 11
2350.0
 21
2050.0
 31
0.0
  0
LINE
  5
3DEB
330
18
100
AcDbEntity
  8
1
  6
Continuous
100
AcDbLine
 10
2250.0
 20
1925.0
 30
0.0
 11
2325.0
 21
1950.0
 31
0.0
  0
LINE
  5
3DEC
330
18
100
AcDbEntity
  8
1
  6
Continuous
100
AcDbLine
 10
2262.5
 20
1937.5
 30
0.0
 11
2237.5
 21
1962.5
 31
0.0
  0
LINE
  5
3DED
330
18
100
AcDbEntity
  8
1
  6
Continuous
100
AcDbLine
 10
2237.5
 20
1937.5
 30
0.0
 11
2262.5
 21
1962.5
 31
0.0
  0
LINE
  5
3DEE
330
18
100
AcDbEntity
  8
1
  6
Continuous
100
AcDbLine
 10
2325.0
 20
1950.0
 30
0.0
 11
2350.0
 21
1950.0
 31
0.0
  0
LINE
  5
3E93
330
18
100
AcDbEntity
  8
1
  6
DASHDOT
100
AcDbLine
 10
2700.0
 20
2100.0
 30
0.0
 11
2050.0
 21
2100.0
 31
0.0
  0
LINE
  5
3E94
330
18
100
AcDbEntity
  8
1
  6
DASHDOT
100
AcDbLine
 10
2050.0
 20
2100.0
 30
0.0
 11
2050.0
 21
1750.0
 31
0.0
  0
LINE
  5
3E95
330
18
100
AcDbEntity
  8
1
  6
DASHDOT
100
AcDbLine
 10
2700.0
 20
2100.0
 30
0.0
 11
2700.0
 21
1750.0
 31
0.0
  0
LINE
  5
3E96
330
18
100
AcDbEntity
  8
1
  6
DASHDOT
100
AcDbLine
 10
2700.0
 20
1750.0
 30
0.0
 11
2050.0
 21
1750.0
 31
0.0
  0
LINE
  5
3ECE
330
18
100
AcDbEntity
  8
1
  6
Continuous
100
AcDbLine
 10
1864.25
 20
2058.875
 30
0.0
 11
1855.375
 21
2041.125
 31
0.0
  0
LINE
  5
3ECF
330
18
100
AcDbEntity
  8
1
  6
Continuous
100
AcDbLine
 10
1846.499999999999
 20
2058.875
 30
0.0
 11
1837.625
 21
2041.125
 31
0.0
  0
LINE
  5
3ED0
330
18
100
AcDbEntity
  8
1
  6
Continuous
100
AcDbLine
 10
1855.375
 20
2058.875
 30
0.0
 11
1846.499999999999
 21
2041.125
 31
0.0
  0
LINE
  5
3EEE
330
18
100
AcDbEntity
  8
1
  6
DASHED
100
AcDbLine
 10
2525.0
 20
1800.0
 30
0.0
 11
2925.0
 21
1800.0
 31
0.0
  0
LINE
  5
3EF0
330
18
100
AcDbEntity
  8
1
  6
DASHED
100
AcDbLine
 10
2524.371843353823
 20
1800.628156646177
 30
0.0
 11
2475.0
 21
1900.0
 31
0.0
  0
TEXT
  5
3F0E
330
18
100
AcDbEntity
  8
1
  6
Continuous
100
AcDbText
 10
2175.074333333333
 20
1903.889999999999
 30
0.0
 40
28.39999999999999
  1
SPD保護用MCCB
 41
0.7
  7
M7
 72
     1
 11
2277.125
 21
1918.09
 31
0.0
100
AcDbText
 73
     2
  0
CIRCLE
  5
3F19
330
18
100
AcDbEntity
  8
JIS
  6
ByBlock
100
AcDbCircle
 10
1103.44999787
 20
2050.0
 30
0.0
 40
39.04999929
  0
CIRCLE
  5
3F1A
330
18
100
AcDbEntity
  8
JIS
  6
ByBlock
100
AcDbCircle
 10
1039.549999289999
 20
2050.0
 30
0.0
 40
39.04999929
  0
LWPOLYLINE
  5
3F1F
330
18
100
AcDbEntity
  8
JIS
100
AcDbPolyline
 90
        2
 70
     0
 43
3.549999999999998
 10
1038.4850426
 20
2028.70000071
 10
1038.4850426
 20
2071.299999289999
  0
LWPOLYLINE
  5
3F20
330
18
100
AcDbEntity
  8
JIS
100
AcDbPolyline
 90
        2
 70
     0
 43
3.549999999999998
 10
1102.38504118
 20
2028.70000071
 10
1102.38504118
 20
2071.299999289999
  0
LWPOLYLINE
  5
3F21
330
18
100
AcDbEntity
  8
JIS
100
AcDbPolyline
 90
        2
 70
     0
 43
3.549999999999998
 10
1091.73504189
 20
2028.70000071
 10
1091.73504189
 20
2071.299999289999
  0
LWPOLYLINE
  5
3F22
330
18
100
AcDbEntity
  8
KUROMARU
  6
Continuous
100
AcDbPolyline
 90
        2
 70
     1
 43
3.549999999999998
 10
1142.499998579998
 20
2048.224999999999
 42
0.9999999999999998
 10
1142.499998579998
 20
2051.775
 42
1.0
  0
LWPOLYLINE
  5
3F23
330
18
100
AcDbEntity
  8
JIS
100
AcDbPolyline
 90
        2
 70
     0
 43
3.549999999999998
 10
1113.03504118
 20
2028.70000071
 10
1113.03504118
 20
2071.299999289999
  0
TEXT
  5
3F24
330
18
100
AcDbEntity
  8
1
  6
Continuous
100
AcDbText
 10
1054.933333333333
 20
2127.8
 30
0.0
 40
28.39999999999999
  1
TR
 41
0.7
  7
M7
 72
     1
 11
1071.5
 21
2142.0
 31
0.0
100
AcDbText
 73
     2
  0
TEXT
  5
3F25
330
18
100
AcDbEntity
  8
1
  6
Continuous
100
AcDbText
 10
1033.065333333333
 20
2093.72
 30
0.0
 40
28.39999999999999
  1
1φ3W
 41
0.7
  7
M7
 72
     1
 11
1071.5
 21
2107.92
 31
0.0
100
AcDbText
 73
     2
  0
LINE
  5
3F27
330
18
100
AcDbEntity
  8
1
  6
Continuous
100
AcDbLine
 10
900.0
 20
2050.0
 30
0.0
 11
1000.0
 21
2050.0
 31
0.0
  0
LINE
  5
3F30
330
18
100
AcDbEntity
  8
1
  6
DASHED
100
AcDbLine
 10
2475.0
 20
1800.0
 30
0.0
 11
2475.0
 21
1900.0
 31
0.0
  0
LINE
  5
3F32
330
18
100
AcDbEntity
  8
1
  6
Continuous
100
AcDbLine
 10
2469.675
 20
1782.25
 30
0.0
 11
2478.55
 21
1782.25
 31
0.0
  0
LINE
  5
3F33
330
18
100
AcDbEntity
  8
1
  6
Continuous
100
AcDbLine
 10
2457.25
 20
1800.0
 30
0.0
 11
2492.75
 21
1800.0
 31
0.0
  0
LINE
  5
3F34
330
18
100
AcDbEntity
  8
1
  6
Continuous
100
AcDbLine
 10
2466.124999999999
 20
1791.125
 30
0.0
 11
2483.875
 21
1791.125
 31
0.0
  0
TEXT
  5
3F65
330
18
100
AcDbEntity
  8
1
  6
Continuous
100
AcDbText
 10
2249.281136363636
 20
2112.015
 30
0.0
 40
28.39999999999999
  1
クラスⅡSPD(誘導雷用)
 41
0.7
  7
ｽﾀｲﾙ1
 72
     1
 11
2393.75
 21
2126.215
 31
0.0
100
AcDbText
 73
     2
  0
TEXT
  5
3F8D
330
18
100
AcDbEntity
  8
1
100
AcDbText
 10
337.5000081587203
 20
1812.499996352558
 30
0.0
 40
40.0
  1
誘導雷用SPD
 41
0.7
  7
M7
100
AcDbText
  0
LINE
  5
3F8F
330
18
100
AcDbEntity
  8
1
100
AcDbLine
 10
300.0000055798682
 20
1749.999997674636
 30
0.0
 11
750.0000055798683
 21
1749.999997674636
 31
0.0
  0
TEXT
  5
3F90
330
18
100
AcDbEntity
  8
1
100
AcDbText
 10
337.5000081587203
 20
2099.999996352559
 30
0.0
 40
40.0
  1
充電線・信号線
 41
0.7
  7
M7
100
AcDbText
  0
LINE
  5
3F91
330
18
100
AcDbEntity
  8
1
100
AcDbLine
 10
750.0000081587204
 20
2174.999996352558
 30
0.0
 11
300.0000081587203
 21
2174.999996352558
 31
0.0
  0
LINE
  5
3F92
330
18
100
AcDbEntity
  8
1
100
AcDbLine
 10
300.0000055798682
 20
2174.999997674635
 30
0.0
 11
300.0000055798682
 21
1749.999997674636
 31
0.0
  0
LINE
  5
3F93
330
18
100
AcDbEntity
  8
1
100
AcDbLine
 10
750.0000055798683
 20
1749.999997674636
 30
0.0
 11
750.0000055798683
 21
2174.999997674635
 31
0.0
  0
LWPOLYLINE
  5
3F94
330
18
100
AcDbEntity
  8
1
100
AcDbPolyline
 90
        4
 70
     1
 43
0.0
 10
637.5000055798682
 20
1874.999997674636
 10
687.5000055798683
 20
1874.999997674636
 10
687.5000055798683
 20
1774.999997674636
 10
637.5000055798682
 20
1774.999997674636
  0
LINE
  5
3F96
330
18
100
AcDbEntity
  8
1
100
AcDbLine
 10
587.5000081587204
 20
2124.999996352558
 30
0.0
 11
712.5000081587204
 21
2124.999996352558
 31
0.0
  0
LINE
  5
3F97
330
18
100
AcDbEntity
  8
1
  6
DASHED
100
AcDbLine
 10
587.5000081587204
 20
2049.999996352558
 30
0.0
 11
712.5000081587204
 21
2049.999996352558
 31
0.0
  0
LINE
  5
3F99
330
18
100
AcDbEntity
  8
1
100
AcDbLine
 10
662.5000055798682
 20
1799.999997674635
 30
0.0
 11
662.5000055798682
 21
1862.499997674635
 31
0.0
  0
LINE
  5
3F9A
330
18
100
AcDbEntity
  8
1
100
AcDbLine
 10
650.0000055798682
 20
1799.999997674635
 30
0.0
 11
675.0000055798682
 21
1799.999997674635
 31
0.0
  0
LINE
  5
3F9B
330
18
100
AcDbEntity
  8
1
100
AcDbLine
 10
662.5000055798682
 20
1787.499997674635
 30
0.0
 11
650.0000055798682
 21
1799.999997674635
 31
0.0
  0
LINE
  5
3F9C
330
18
100
AcDbEntity
  8
1
100
AcDbLine
 10
662.5000055798682
 20
1787.499997674635
 30
0.0
 11
675.0000055798682
 21
1799.999997674635
 31
0.0
  0
HATCH
  5
3F9D
330
18
100
AcDbEntity
  8
1
100
AcDbHatch
 10
0.0
 20
0.0
 30
0.0
210
0.0
220
0.0
230
1.0
  2
ANSI31
 70
     0
 71
     0
 91
        2
 92
        7
 72
     0
 73
     1
 93
        3
 10
662.5000055798682
 20
1787.499997674635
 10
665.6250055798682
 20
1799.999997674635
 10
650.0000055798682
 20
1799.999997674635
 97
        0
 92
        7
 72
     0
 73
     1
 93
        3
 10
675.0000055798682
 20
1799.999997674635
 10
665.6250055798682
 20
1799.999997674635
 10
662.5000055798682
 20
1787.499997674635
 97
        0
 75
     0
 76
     1
 52
0.0
 41
0.5
 77
     0
 78
     1
 53
45.0
 43
162.5000055798681
 44
674.9999976746358
 45
-1.122532015133643
 46
1.122532015133643
 79
     0
 47
0.668826438124856
 98
        2
 10
660.2931702099922
 20
1794.766096556931
 10
667.65575232027
 20
1796.103752481212
  0
TEXT
  5
3FA2
330
18
100
AcDbEntity
  8
1
100
AcDbText
 10
390.566674825387
 20
2029.999996352559
 30
0.0
 40
40.0
  1
接地線
 41
0.7
  7
M7
 72
     1
 11
437.5000081587203
 21
2049.999996352558
 31
0.0
100
AcDbText
 73
     2
  0
LINE
  5
3FB0
330
18
100
AcDbEntity
  8
1
100
AcDbLine
 10
3249.999995391965
 20
2025.000001521577
 30
0.0
 11
3249.999995391965
 21
2087.500001521577
 31
0.0
  0
LWPOLYLINE
  5
3FB1
330
18
100
AcDbEntity
  8
1
100
AcDbPolyline
 90
        4
 70
     1
 43
0.0
 10
3224.999995391964
 20
2100.000001521577
 10
3274.999995391965
 20
2100.000001521577
 10
3274.999995391965
 20
2000.000001521577
 10
3224.999995391964
 20
2000.000001521577
  0
LINE
  5
3FB2
330
18
100
AcDbEntity
  8
1
  6
Continuous
100
AcDbLine
 10
3087.5
 20
2071.650635094611
 30
0.0
 11
3087.5
 21
2028.349364905389
 31
0.0
  0
LINE
  5
3FB3
330
18
100
AcDbEntity
  8
1
  6
Continuous
100
AcDbLine
 10
3112.5
 20
2071.650635094611
 30
0.0
 11
3112.5
 21
2028.349364905389
 31
0.0
  0
CIRCLE
  5
3FB4
330
18
100
AcDbEntity
  8
1
  6
Continuous
100
AcDbCircle
 10
3100.0
 20
2050.0
 30
0.0
 40
25.0
  0
LWPOLYLINE
  5
3FB5
330
18
100
AcDbEntity
  8
1
  6
Continuous
100
AcDbPolyline
 90
        4
 70
     1
 43
0.0
 10
3600.0
 20
2075.0
 10
3700.0
 20
2075.0
 10
3700.0
 20
2025.0
 10
3600.0
 20
2025.0
  0
LINE
  5
3FB6
330
18
100
AcDbEntity
  8
1
  6
DASHED
100
AcDbLine
 10
3400.0
 20
1975.0
 30
0.0
 11
3650.0
 21
1975.0
 31
0.0
  0
LINE
  5
3FB7
330
18
100
AcDbEntity
  8
1
  6
DASHED
100
AcDbLine
 10
2925.0
 20
1975.0
 30
0.0
 11
3100.0
 21
1975.0
 31
0.0
  0
LINE
  5
3FB8
330
18
100
AcDbEntity
  8
1
  6
Continuous
100
AcDbLine
 10
3100.0
 20
1975.0
 30
0.0
 11
3075.0
 21
1987.5
 31
0.0
  0
LINE
  5
3FB9
330
18
100
AcDbEntity
  8
1
100
AcDbLine
 10
3237.499995391964
 20
2025.000001521577
 30
0.0
 11
3262.499995391964
 21
2025.000001521577
 31
0.0
  0
LINE
  5
3FBA
330
18
100
AcDbEntity
  8
1
100
AcDbLine
 10
3249.999995391965
 20
2012.500001521577
 30
0.0
 11
3237.499995391964
 21
2025.000001521577
 31
0.0
  0
LINE
  5
3FBB
330
18
100
AcDbEntity
  8
1
100
AcDbLine
 10
3249.999995391965
 20
2012.500001521577
 30
0.0
 11
3262.499995391964
 21
2025.000001521577
 31
0.0
  0
LINE
  5
3FBC
330
18
100
AcDbEntity
  8
1
  6
Continuous
100
AcDbLine
 10
3249.999999380876
 20
2025.000001521577
 30
0.0
 11
3249.999999380876
 21
2012.500005510488
 31
0.0
  0
HATCH
  5
3FBD
330
18
100
AcDbEntity
  8
1
100
AcDbHatch
 10
0.0
 20
0.0
 30
0.0
210
0.0
220
0.0
230
1.0
  2
ANSI31
 70
     0
 71
     0
 91
        2
 92
        7
 72
     0
 73
     1
 93
        3
 10
3249.999995391965
 20
2012.500001521577
 10
3253.124995391964
 20
2025.000001521577
 10
3237.499995391964
 20
2025.000001521577
 97
        0
 92
        7
 72
     0
 73
     1
 93
        3
 10
3262.499995391964
 20
2025.000001521577
 10
3253.124995391964
 20
2025.000001521577
 10
3249.999995391965
 20
2012.500001521577
 97
        0
 75
     0
 76
     1
 52
0.0
 41
0.5
 77
     0
 78
     1
 53
45.0
 43
2749.999995391965
 44
900.0000015215773
 45
-1.122532015133643
 46
1.122532015133643
 79
     0
 47
0.668826438124856
 98
        2
 10
3247.793160022089
 20
2019.766100403872
 10
3255.155742132367
 20
2021.103756328153
  0
LINE
  5
3FBE
330
18
100
AcDbEntity
  8
1
  6
Continuous
100
AcDbLine
 10
3400.0
 20
1975.0
 30
0.0
 11
3425.0
 21
1987.5
 31
0.0
  0
LINE
  5
3FBF
330
18
100
AcDbEntity
  8
1
  6
DASHED
100
AcDbLine
 10
3650.0
 20
1975.0
 30
0.0
 11
3650.0
 21
2025.0
 31
0.0
  0
LINE
  5
3FC0
330
18
100
AcDbEntity
  8
1
  6
Continuous
100
AcDbLine
 10
3400.0
 20
2050.0
 30
0.0
 11
3600.0
 21
2050.0
 31
0.0
  0
LINE
  5
3FC1
330
18
100
AcDbEntity
  8
1
  6
Continuous
100
AcDbLine
 10
2914.25
 20
2058.875
 30
0.0
 11
2905.375
 21
2041.125
 31
0.0
  0
LINE
  5
3FC2
330
18
100
AcDbEntity
  8
1
  6
Continuous
100
AcDbLine
 10
2905.375
 20
2058.875
 30
0.0
 11
2896.499999999998
 21
2041.125
 31
0.0
  0
LINE
  5
3FC3
330
18
100
AcDbEntity
  8
1
  6
Continuous
100
AcDbLine
 10
2896.499999999998
 20
2058.875
 30
0.0
 11
2887.624999999998
 21
2041.125
 31
0.0
  0
ARC
  5
3FC4
330
18
100
AcDbEntity
  8
1
  6
Continuous
100
AcDbCircle
 10
3387.5
 20
2050.0
 30
0.0
 40
12.5
100
AcDbArc
 50
270.0
 51
90.0
  0
LINE
  5
3FC5
330
18
100
AcDbEntity
  8
1
  6
Continuous
100
AcDbLine
 10
3375.0
 20
2044.0
 30
0.0
 11
3362.5
 21
2044.0
 31
0.0
  0
LINE
  5
3FC6
330
18
100
AcDbEntity
  8
1
  6
Continuous
100
AcDbLine
 10
3375.0
 20
2056.0
 30
0.0
 11
3362.5
 21
2056.0
 31
0.0
  0
LINE
  5
3FC7
330
18
100
AcDbEntity
  8
1
  6
Continuous
100
AcDbLine
 10
3375.0
 20
2037.5
 30
0.0
 11
3387.5
 21
2037.5
 31
0.0
  0
LINE
  5
3FC8
330
18
100
AcDbEntity
  8
1
  6
Continuous
100
AcDbLine
 10
3375.0
 20
2062.5
 30
0.0
 11
3375.0
 21
2037.5
 31
0.0
  0
LINE
  5
3FC9
330
18
100
AcDbEntity
  8
1
  6
Continuous
100
AcDbLine
 10
3387.5
 20
2062.5
 30
0.0
 11
3375.0
 21
2062.5
 31
0.0
  0
TEXT
  5
3FCA
330
18
100
AcDbEntity
  8
1
  6
Continuous
100
AcDbText
 10
3603.113333333332
 20
2079.39
 30
0.0
 40
28.39999999999999
  1
ＯＡ機器
 41
0.7
  7
M7
 72
     1
 11
3649.499999999999
 21
2093.59
 31
0.0
100
AcDbText
 73
     2
  0
LINE
  5
3FCB
330
18
100
AcDbEntity
  8
1
  6
Continuous
100
AcDbLine
 10
2350.0
 20
2050.0
 30
0.0
 11
3075.0
 21
2050.0
 31
0.0
  0
LINE
  5
3FCC
330
18
100
AcDbEntity
  8
1
  6
DASHED
100
AcDbLine
 10
2924.999995391964
 20
1800.000001521577
 30
0.0
 11
2924.999995391964
 21
1975.000001521577
 31
0.0
  0
LINE
  5
4004
330
18
100
AcDbEntity
  8
1
  6
DASHED
100
AcDbLine
 10
1075.0
 20
1950.0
 30
0.0
 11
1075.0
 21
2025.0
 31
0.0
  0
LINE
  5
4006
330
18
100
AcDbEntity
  8
1
  6
Continuous
100
AcDbLine
 10
1066.125
 20
1941.124999999999
 30
0.0
 11
1083.875
 21
1941.124999999999
 31
0.0
  0
LINE
  5
4007
330
18
100
AcDbEntity
  8
1
  6
Continuous
100
AcDbLine
 10
1069.674999999999
 20
1932.25
 30
0.0
 11
1078.549999999999
 21
1932.25
 31
0.0
  0
LINE
  5
4008
330
18
100
AcDbEntity
  8
1
  6
Continuous
100
AcDbLine
 10
1057.25
 20
1950.0
 30
0.0
 11
1092.75
 21
1950.0
 31
0.0
  0
LINE
  5
4018
330
18
100
AcDbEntity
  8
1
  6
Continuous
100
AcDbLine
 10
900.0
 20
2500.0
 30
0.0
 11
1000.0
 21
2500.0
 31
0.0
  0
CIRCLE
  5
4019
330
18
100
AcDbEntity
  8
JIS
  6
ByBlock
100
AcDbCircle
 10
1108.199997869999
 20
2500.0
 30
0.0
 40
39.04999929
  0
CIRCLE
  5
401A
330
18
100
AcDbEntity
  8
JIS
  6
ByBlock
100
AcDbCircle
 10
1044.299999289998
 20
2500.0
 30
0.0
 40
39.04999929
  0
LWPOLYLINE
  5
401B
330
18
100
AcDbEntity
  8
JIS
100
AcDbPolyline
 90
        2
 70
     0
 43
3.549999999999998
 10
1065.60000923
 20
2499.99999645
 10
1044.300009229998
 20
2499.99999645
  0
LINE
  5
401C
330
18
100
AcDbEntity
  8
JIS
100
AcDbLine
 10
1065.599999289999
 20
2501.06501065
 30
0.0
 11
1065.599999289999
 21
2498.934989349999
 31
0.0
  0
LWPOLYLINE
  5
401D
330
18
100
AcDbEntity
  8
JIS
100
AcDbPolyline
 90
        2
 70
     0
 43
3.549999999999998
 10
1033.65000923
 20
2481.55365534939
 10
1044.300009229998
 20
2499.99999645
  0
LWPOLYLINE
  5
401E
330
18
100
AcDbEntity
  8
JIS
100
AcDbPolyline
 90
        2
 70
     0
 43
3.549999999999998
 10
1033.65000923
 20
2518.446337550608
 10
1044.300009229998
 20
2499.99999645
  0
LWPOLYLINE
  5
401F
330
18
100
AcDbEntity
  8
JIS
100
AcDbPolyline
 90
        3
 70
     1
 43
3.549999999999998
 10
1129.144980119999
 20
2481.913712063435
 10
1129.144980119999
 20
2518.086260246565
 10
1097.55001065
 20
2499.99999645
  0
LWPOLYLINE
  5
4020
330
18
100
AcDbEntity
  8
KUROMARU
  6
Continuous
100
AcDbPolyline
 90
        2
 70
     1
 43
3.549999999999998
 10
1147.249998579998
 20
2498.225
 42
0.9999999999999998
 10
1147.249998579998
 20
2501.775
 42
1.0
  0
TEXT
  5
4021
330
18
100
AcDbEntity
  8
1
  6
Continuous
100
AcDbText
 10
998.0553333333332
 20
2550.97
 30
0.0
 40
28.39999999999999
  1
3φ3W210V
 41
0.7
  7
M7
 72
     1
 11
1076.25
 21
2565.17
 31
0.0
100
AcDbText
 73
     2
  0
TEXT
  5
4022
330
18
100
AcDbEntity
  8
1
  6
Continuous
100
AcDbText
 10
1059.683333333333
 20
2585.05
 30
0.0
 40
28.39999999999999
  1
TR
 41
0.7
  7
M7
 72
     1
 11
1076.25
 21
2599.25
 31
0.0
100
AcDbText
 73
     2
  0
LINE
  5
4025
330
18
100
AcDbEntity
  8
1
  6
Continuous
100
AcDbLine
 10
1069.674999999999
 20
2382.25
 30
0.0
 11
1078.549999999999
 21
2382.25
 31
0.0
  0
LINE
  5
4026
330
18
100
AcDbEntity
  8
1
  6
Continuous
100
AcDbLine
 10
1066.125
 20
2391.125
 30
0.0
 11
1083.875
 21
2391.125
 31
0.0
  0
LINE
  5
4027
330
18
100
AcDbEntity
  8
1
  6
Continuous
100
AcDbLine
 10
1057.25
 20
2400.0
 30
0.0
 11
1092.75
 21
2400.0
 31
0.0
  0
LINE
  5
4028
330
18
100
AcDbEntity
  8
1
  6
DASHED
100
AcDbLine
 10
1075.0
 20
2400.0
 30
0.0
 11
1075.0
 21
2475.0
 31
0.0
  0
LINE
  5
4029
330
18
100
AcDbEntity
  8
1
  6
Continuous
100
AcDbLine
 10
1150.0
 20
2500.0
 30
0.0
 11
1350.0
 21
2500.0
 31
0.0
  0
LINE
  5
402A
330
18
100
AcDbEntity
  8
1
  6
Continuous
100
AcDbLine
 10
1337.5
 20
2487.5
 30
0.0
 11
1362.5
 21
2512.5
 31
0.0
  0
LINE
  5
402B
330
18
100
AcDbEntity
  8
1
  6
Continuous
100
AcDbLine
 10
1362.5
 20
2487.5
 30
0.0
 11
1337.5
 21
2512.5
 31
0.0
  0
LINE
  5
402C
330
18
100
AcDbEntity
  8
1
  6
Continuous
100
AcDbLine
 10
1350.0
 20
2475.0
 30
0.0
 11
1425.0
 21
2500.0
 31
0.0
  0
LINE
  5
402D
330
18
100
AcDbEntity
  8
1
  6
Continuous
100
AcDbLine
 10
1425.0
 20
2500.0
 30
0.0
 11
1450.0
 21
2500.0
 31
0.0
  0
LINE
  5
402E
330
18
100
AcDbEntity
  8
1
  6
Continuous
100
AcDbLine
 10
1450.0
 20
2500.0
 30
0.0
 11
2250.0
 21
2500.0
 31
0.0
  0
LINE
  5
402F
330
18
100
AcDbEntity
  8
1
  6
Continuous
100
AcDbLine
 10
1846.499999999999
 20
2508.875
 30
0.0
 11
1837.625
 21
2491.125
 31
0.0
  0
LINE
  5
4030
330
18
100
AcDbEntity
  8
1
  6
Continuous
100
AcDbLine
 10
1855.375
 20
2508.875
 30
0.0
 11
1846.499999999999
 21
2491.125
 31
0.0
  0
LINE
  5
4031
330
18
100
AcDbEntity
  8
1
  6
Continuous
100
AcDbLine
 10
1864.25
 20
2508.875
 30
0.0
 11
1855.375
 21
2491.125
 31
0.0
  0
LINE
  5
4032
330
18
100
AcDbEntity
  8
1
  6
Continuous
100
AcDbLine
 10
2150.0
 20
2400.0
 30
0.0
 11
2250.0
 21
2400.0
 31
0.0
  0
LINE
  5
4033
330
18
100
AcDbEntity
  8
1
  6
DASHDOT
100
AcDbLine
 10
2700.0
 20
2700.0
 30
0.0
 11
2050.0
 21
2700.0
 31
0.0
  0
LINE
  5
4034
330
18
100
AcDbEntity
  8
1
  6
DASHDOT
100
AcDbLine
 10
2700.0
 20
2200.0
 30
0.0
 11
2050.0
 21
2200.0
 31
0.0
  0
TEXT
  5
4036
330
18
100
AcDbEntity
  8
1
  6
Continuous
100
AcDbText
 10
2175.074333333333
 20
2353.89
 30
0.0
 40
28.39999999999999
  1
SPD保護用MCCB
 41
0.7
  7
M7
 72
     1
 11
2277.125
 21
2368.09
 31
0.0
100
AcDbText
 73
     2
  0
LINE
  5
4037
330
18
100
AcDbEntity
  8
1
  6
DASHDOT
100
AcDbLine
 10
2050.0
 20
2700.0
 30
0.0
 11
2050.0
 21
2200.0
 31
0.0
  0
LINE
  5
4039
330
18
100
AcDbEntity
  8
1
  6
Continuous
100
AcDbLine
 10
2150.0
 20
2500.0
 30
0.0
 11
2150.0
 21
2400.0
 31
0.0
  0
CIRCLE
  5
403A
330
18
100
AcDbEntity
  8
1
  6
Continuous
100
AcDbCircle
 10
2150.0
 20
2500.0
 30
0.0
 40
2.5
  0
LINE
  5
403B
330
18
100
AcDbEntity
  8
1
  6
Continuous
100
AcDbLine
 10
2400.0
 20
2600.0
 30
0.0
 11
2400.0
 21
2500.0
 31
0.0
  0
LINE
  5
403C
330
18
100
AcDbEntity
  8
1
  6
DASHDOT
100
AcDbLine
 10
2700.0
 20
2700.0
 30
0.0
 11
2700.0
 21
2200.0
 31
0.0
  0
LINE
  5
403D
330
18
100
AcDbEntity
  8
1
  6
DASHED
100
AcDbLine
 10
2525.0
 20
2250.0
 30
0.0
 11
2925.0
 21
2250.0
 31
0.0
  0
LINE
  5
403E
330
18
100
AcDbEntity
  8
1
  6
Continuous
100
AcDbLine
 10
2500.0
 20
2475.0
 30
0.0
 11
2575.0
 21
2500.0
 31
0.0
  0
LINE
  5
403F
330
18
100
AcDbEntity
  8
1
  6
DASHED
100
AcDbLine
 10
2474.999995391965
 20
2250.000001521577
 30
0.0
 11
2474.999995391965
 21
2350.000001521577
 31
0.0
  0
LINE
  5
4040
330
18
100
AcDbEntity
  8
1
  6
DASHED
100
AcDbLine
 10
2524.371843353823
 20
2250.628156646177
 30
0.0
 11
2475.0
 21
2350.0
 31
0.0
  0
LINE
  5
4041
330
18
100
AcDbEntity
  8
1
  6
Continuous
100
AcDbLine
 10
2350.0
 20
2400.0
 30
0.0
 11
2450.0
 21
2400.0
 31
0.0
  0
LINE
  5
4042
330
18
100
AcDbEntity
  8
1
  6
Continuous
100
AcDbLine
 10
2350.0
 20
2500.0
 30
0.0
 11
2500.0
 21
2500.0
 31
0.0
  0
LINE
  5
4043
330
18
100
AcDbEntity
  8
1
  6
Continuous
100
AcDbLine
 10
2250.0
 20
2375.0
 30
0.0
 11
2325.0
 21
2400.0
 31
0.0
  0
LINE
  5
4044
330
18
100
AcDbEntity
  8
1
  6
Continuous
100
AcDbLine
 10
2262.5
 20
2387.5
 30
0.0
 11
2237.5
 21
2412.5
 31
0.0
  0
LINE
  5
4045
330
18
100
AcDbEntity
  8
1
  6
Continuous
100
AcDbLine
 10
2237.5
 20
2387.5
 30
0.0
 11
2262.5
 21
2412.5
 31
0.0
  0
LINE
  5
4046
330
18
100
AcDbEntity
  8
1
  6
Continuous
100
AcDbLine
 10
2325.0
 20
2400.0
 30
0.0
 11
2350.0
 21
2400.0
 31
0.0
  0
LINE
  5
4047
330
18
100
AcDbEntity
  8
1
  6
Continuous
100
AcDbLine
 10
2250.0
 20
2475.0
 30
0.0
 11
2325.0
 21
2500.0
 31
0.0
  0
LINE
  5
4048
330
18
100
AcDbEntity
  8
1
  6
Continuous
100
AcDbLine
 10
2262.5
 20
2487.5
 30
0.0
 11
2237.5
 21
2512.5
 31
0.0
  0
LINE
  5
4049
330
18
100
AcDbEntity
  8
1
  6
Continuous
100
AcDbLine
 10
2237.5
 20
2487.5
 30
0.0
 11
2262.5
 21
2512.5
 31
0.0
  0
LINE
  5
404A
330
18
100
AcDbEntity
  8
1
  6
Continuous
100
AcDbLine
 10
2325.0
 20
2500.0
 30
0.0
 11
2350.0
 21
2500.0
 31
0.0
  0
LINE
  5
404B
330
18
100
AcDbEntity
  8
1
100
AcDbLine
 10
2474.999995391965
 20
2375.000001521577
 30
0.0
 11
2474.999995391965
 21
2437.500001521577
 31
0.0
  0
LWPOLYLINE
  5
404C
330
18
100
AcDbEntity
  8
1
100
AcDbPolyline
 90
        4
 70
     1
 43
0.0
 10
2449.999995391965
 20
2450.000001521577
 10
2499.999995391965
 20
2450.000001521577
 10
2499.999995391965
 20
2350.000001521577
 10
2449.999995391965
 20
2350.000001521577
  0
LINE
  5
404D
330
18
100
AcDbEntity
  8
1
100
AcDbLine
 10
2462.499995391965
 20
2375.000001521577
 30
0.0
 11
2487.499995391965
 21
2375.000001521577
 31
0.0
  0
LINE
  5
404E
330
18
100
AcDbEntity
  8
1
100
AcDbLine
 10
2474.999995391965
 20
2362.500001521577
 30
0.0
 11
2487.499995391965
 21
2375.000001521577
 31
0.0
  0
HATCH
  5
404F
330
18
100
AcDbEntity
  8
1
100
AcDbHatch
 10
0.0
 20
0.0
 30
0.0
210
0.0
220
0.0
230
1.0
  2
ANSI31
 70
     0
 71
     0
 91
        2
 92
        7
 72
     0
 73
     1
 93
        3
 10
2474.999995391965
 20
2362.500001521577
 10
2478.124995391965
 20
2375.000001521577
 10
2462.499995391965
 20
2375.000001521577
 97
        0
 92
        7
 72
     0
 73
     1
 93
        3
 10
2487.499995391965
 20
2375.000001521577
 10
2478.124995391965
 20
2375.000001521577
 10
2474.999995391965
 20
2362.500001521577
 97
        0
 75
     0
 76
     1
 52
0.0
 41
0.5
 77
     0
 78
     1
 53
45.0
 43
1974.999995391965
 44
1250.000001521577
 45
-1.122532015133643
 46
1.122532015133643
 79
     0
 47
0.668826438124856
 98
        2
 10
2472.793160022089
 20
2369.766100403873
 10
2480.155742132367
 20
2371.103756328154
  0
LINE
  5
4050
330
18
100
AcDbEntity
  8
1
100
AcDbLine
 10
2474.999995391965
 20
2362.500001521577
 30
0.0
 11
2462.499995391965
 21
2375.000001521577
 31
0.0
  0
LINE
  5
4051
330
18
100
AcDbEntity
  8
1
  6
Continuous
100
AcDbLine
 10
2474.999999380876
 20
2375.000001521577
 30
0.0
 11
2474.999999380876
 21
2362.500005510488
 31
0.0
  0
CIRCLE
  5
4052
330
18
100
AcDbEntity
  8
1
  6
Continuous
100
AcDbCircle
 10
2400.0
 20
2500.0
 30
0.0
 40
2.5
  0
LINE
  5
4053
330
18
100
AcDbEntity
  8
1
  6
Continuous
100
AcDbLine
 10
2487.5
 20
2487.5
 30
0.0
 11
2512.5
 21
2512.5
 31
0.0
  0
LINE
  5
4054
330
18
100
AcDbEntity
  8
1
  6
Continuous
100
AcDbLine
 10
2512.5
 20
2487.5
 30
0.0
 11
2487.5
 21
2512.5
 31
0.0
  0
LINE
  5
4055
330
18
100
AcDbEntity
  8
1
  6
Continuous
100
AcDbLine
 10
2575.0
 20
2500.0
 30
0.0
 11
2600.0
 21
2500.0
 31
0.0
  0
LINE
  5
4056
330
18
100
AcDbEntity
  8
1
  6
Continuous
100
AcDbLine
 10
2925.0
 20
2250.0
 30
0.0
 11
2900.0
 21
2262.5
 31
0.0
  0
LINE
  5
4057
330
18
100
AcDbEntity
  8
1
  6
Continuous
100
AcDbLine
 10
2905.375
 20
2508.875
 30
0.0
 11
2896.499999999998
 21
2491.125
 31
0.0
  0
LINE
  5
4058
330
18
100
AcDbEntity
  8
1
  6
Continuous
100
AcDbLine
 10
2896.499999999998
 20
2508.875
 30
0.0
 11
2887.624999999998
 21
2491.125
 31
0.0
  0
LINE
  5
4059
330
18
100
AcDbEntity
  8
1
  6
Continuous
100
AcDbLine
 10
2914.25
 20
2508.875
 30
0.0
 11
2905.375
 21
2491.125
 31
0.0
  0
LINE
  5
405B
330
18
100
AcDbEntity
  8
1
  6
Continuous
100
AcDbLine
 10
2500.0
 20
2575.0
 30
0.0
 11
2575.0
 21
2600.0
 31
0.0
  0
TEXT
  5
405C
330
18
100
AcDbEntity
  8
1
  6
Continuous
100
AcDbText
 10
2249.281136363636
 20
2712.015
 30
0.0
 40
28.39999999999999
  1
クラスⅡSPD(誘導雷用)
 41
0.7
  7
ｽﾀｲﾙ1
 72
     1
 11
2393.75
 21
2726.215
 31
0.0
100
AcDbText
 73
     2
  0
LINE
  5
405D
330
18
100
AcDbEntity
  8
1
  6
Continuous
100
AcDbLine
 10
2400.0
 20
2675.0
 30
0.0
 11
2387.5
 21
2650.0
 31
0.0
  0
LINE
  5
405E
330
18
100
AcDbEntity
  8
1
  6
Continuous
100
AcDbLine
 10
2400.0
 20
2675.0
 30
0.0
 11
2412.5
 21
2650.0
 31
0.0
  0
LINE
  5
405F
330
18
100
AcDbEntity
  8
1
  6
Continuous
100
AcDbLine
 10
2400.0
 20
2600.0
 30
0.0
 11
2400.0
 21
2675.0
 31
0.0
  0
LINE
  5
4060
330
18
100
AcDbEntity
  8
1
  6
Continuous
100
AcDbLine
 10
2400.0
 20
2600.0
 30
0.0
 11
2500.0
 21
2600.0
 31
0.0
  0
CIRCLE
  5
4061
330
18
100
AcDbEntity
  8
1
  6
Continuous
100
AcDbCircle
 10
2400.0
 20
2600.0
 30
0.0
 40
2.5
  0
LINE
  5
4062
330
18
100
AcDbEntity
  8
1
  6
Continuous
100
AcDbLine
 10
2512.5
 20
2587.5
 30
0.0
 11
2487.5
 21
2612.5
 31
0.0
  0
LINE
  5
4063
330
18
100
AcDbEntity
  8
1
  6
Continuous
100
AcDbLine
 10
2487.5
 20
2587.5
 30
0.0
 11
2512.5
 21
2612.5
 31
0.0
  0
TEXT
  5
4068
330
18
100
AcDbEntity
  8
1
  6
Continuous
100
AcDbText
 10
2335.917272727272
 20
2749.515
 30
0.0
 40
28.39999999999999
  1
動力盤部
 41
0.7
  7
ｽﾀｲﾙ1
 72
     1
 11
2393.75
 21
2763.715
 31
0.0
100
AcDbText
 73
     2
  0
LINE
  5
4069
330
18
100
AcDbEntity
  8
1
  6
Continuous
100
AcDbLine
 10
2575.0
 20
2600.0
 30
0.0
 11
2600.0
 21
2600.0
 31
0.0
  0
CIRCLE
  5
406C
330
18
100
AcDbEntity
  8
1
  6
Continuous
100
AcDbCircle
 10
900.0
 20
2500.0
 30
0.0
 40
2.5
  0
LINE
  5
406D
330
18
100
AcDbEntity
  8
1
  6
Continuous
100
AcDbLine
 10
2600.0
 20
2500.0
 30
0.0
 11
3600.0
 21
2500.0
 31
0.0
  0
LINE
  5
406E
330
18
100
AcDbEntity
  8
1
  6
DASHED
100
AcDbLine
 10
3499.999995391965
 20
2250.000001521577
 30
0.0
 11
3649.999995391965
 21
2250.000001521577
 31
0.0
  0
LINE
  5
406F
330
18
100
AcDbEntity
  8
1
  6
DASHED
100
AcDbLine
 10
3137.499995391964
 20
2250.000001521577
 30
0.0
 11
3449.999995391964
 21
2250.000001521577
 31
0.0
  0
LINE
  5
4070
330
18
100
AcDbEntity
  8
1
  6
Continuous
100
AcDbLine
 10
3137.5
 20
2250.0
 30
0.0
 11
3162.5
 21
2262.5
 31
0.0
  0
LINE
  5
4071
330
18
100
AcDbEntity
  8
1
  6
DASHED
100
AcDbLine
 10
3499.371843353823
 20
2250.628156646177
 30
0.0
 11
3450.0
 21
2350.0
 31
0.0
  0
LINE
  5
4072
330
18
100
AcDbEntity
  8
1
  6
DASHED
100
AcDbLine
 10
3449.999995391964
 20
2250.000001521577
 30
0.0
 11
3449.999995391964
 21
2350.000001521577
 31
0.0
  0
LINE
  5
4073
330
18
100
AcDbEntity
  8
1
100
AcDbLine
 10
3449.999995391964
 20
2375.000001521577
 30
0.0
 11
3449.999995391964
 21
2437.500001521577
 31
0.0
  0
LWPOLYLINE
  5
4074
330
18
100
AcDbEntity
  8
1
100
AcDbPolyline
 90
        4
 70
     1
 43
0.0
 10
3424.999995391964
 20
2450.000001521577
 10
3474.999995391964
 20
2450.000001521577
 10
3474.999995391964
 20
2350.000001521577
 10
3424.999995391964
 20
2350.000001521577
  0
LINE
  5
4075
330
18
100
AcDbEntity
  8
1
  6
Continuous
100
AcDbLine
 10
3449.999999380876
 20
2375.000001521577
 30
0.0
 11
3449.999999380876
 21
2362.500005510488
 31
0.0
  0
LINE
  5
4076
330
18
100
AcDbEntity
  8
1
100
AcDbLine
 10
3449.999995391964
 20
2362.500001521577
 30
0.0
 11
3462.499995391965
 21
2375.000001521577
 31
0.0
  0
HATCH
  5
4077
330
18
100
AcDbEntity
  8
1
100
AcDbHatch
 10
0.0
 20
0.0
 30
0.0
210
0.0
220
0.0
230
1.0
  2
ANSI31
 70
     0
 71
     0
 91
        2
 92
        7
 72
     0
 73
     1
 93
        3
 10
3449.999995391964
 20
2362.500001521577
 10
3453.124995391965
 20
2375.000001521577
 10
3437.499995391965
 20
2375.000001521577
 97
        0
 92
        7
 72
     0
 73
     1
 93
        3
 10
3462.499995391965
 20
2375.000001521577
 10
3453.124995391965
 20
2375.000001521577
 10
3449.999995391964
 20
2362.500001521577
 97
        0
 75
     0
 76
     1
 52
0.0
 41
0.5
 77
     0
 78
     1
 53
45.0
 43
2949.999995391964
 44
1250.000001521577
 45
-1.122532015133643
 46
1.122532015133643
 79
     0
 47
0.668826438124856
 98
        2
 10
3447.793160022089
 20
2369.766100403873
 10
3455.155742132367
 20
2371.103756328154
  0
LINE
  5
4078
330
18
100
AcDbEntity
  8
1
100
AcDbLine
 10
3449.999995391964
 20
2362.500001521577
 30
0.0
 11
3437.499995391965
 21
2375.000001521577
 31
0.0
  0
LINE
  5
4079
330
18
100
AcDbEntity
  8
1
100
AcDbLine
 10
3437.499995391965
 20
2375.000001521577
 30
0.0
 11
3462.499995391965
 21
2375.000001521577
 31
0.0
  0
LINE
  5
407A
330
18
100
AcDbEntity
  8
1
  6
Continuous
100
AcDbLine
 10
3450.0
 20
2450.0
 30
0.0
 11
3450.0
 21
2500.0
 31
0.0
  0
CIRCLE
  5
407B
330
18
100
AcDbEntity
  8
1
  6
Continuous
100
AcDbCircle
 10
3450.0
 20
2500.0
 30
0.0
 40
2.5
  0
CIRCLE
  5
407C
330
18
100
AcDbEntity
  8
1
  6
Continuous
100
AcDbCircle
 10
3650.0
 20
2500.0
 30
0.0
 40
50.0
  0
LINE
  5
407D
330
18
100
AcDbEntity
  8
1
  6
DASHED
100
AcDbLine
 10
3650.0
 20
2250.0
 30
0.0
 11
3650.0
 21
2450.0
 31
0.0
  0
TEXT
  5
407E
330
18
100
AcDbEntity
  8
1
  6
Continuous
100
AcDbText
 10
3642.873333333332
 20
2482.64
 30
0.0
 40
28.39999999999999
  1
M
 41
0.7
  7
M7
 72
     1
 11
3649.499999999999
 21
2496.84
 31
0.0
100
AcDbText
 73
     2
  0
TEXT
  5
4080
330
18
100
AcDbEntity
  8
1
  6
Continuous
100
AcDbText
 10
2335.917272727272
 20
2149.515
 30
0.0
 40
28.39999999999999
  1
分電盤部
 41
0.7
  7
ｽﾀｲﾙ1
 72
     1
 11
2393.75
 21
2163.715
 31
0.0
100
AcDbText
 73
     2
  0
LINE
  5
40C3
330
18
100
AcDbEntity
  8
1
  6
Continuous
100
AcDbLine
 10
787.5
 20
2500.0
 30
0.0
 11
900.0
 21
2500.0
 31
0.0
  0
LINE
  5
40C4
330
18
100
AcDbEntity
  8
1
  6
Continuous
100
AcDbLine
 10
900.0
 20
2500.0
 30
0.0
 11
900.0
 21
2050.0
 31
0.0
  0
LINE
  5
40C5
330
18
100
AcDbEntity
  8
1
100
AcDbLine
 10
2475.000005579868
 20
1924.999997674635
 30
0.0
 11
2475.000005579868
 21
1987.499997674635
 31
0.0
  0
LWPOLYLINE
  5
40C6
330
18
100
AcDbEntity
  8
1
100
AcDbPolyline
 90
        4
 70
     1
 43
0.0
 10
2450.000005579868
 20
1999.999997674636
 10
2500.000005579868
 20
1999.999997674636
 10
2500.000005579868
 20
1899.999997674635
 10
2450.000005579868
 20
1899.999997674635
  0
HATCH
  5
40C7
330
18
100
AcDbEntity
  8
1
100
AcDbHatch
 10
0.0
 20
0.0
 30
0.0
210
0.0
220
0.0
230
1.0
  2
ANSI31
 70
     0
 71
     0
 91
        2
 92
        7
 72
     0
 73
     1
 93
        3
 10
2475.000005579868
 20
1912.499997674635
 10
2478.125005579868
 20
1924.999997674635
 10
2462.500005579868
 20
1924.999997674635
 97
        0
 92
        7
 72
     0
 73
     1
 93
        3
 10
2487.500005579867
 20
1924.999997674635
 10
2478.125005579868
 20
1924.999997674635
 10
2475.000005579868
 20
1912.499997674635
 97
        0
 75
     0
 76
     1
 52
0.0
 41
0.5
 77
     0
 78
     1
 53
45.0
 43
1975.000005579867
 44
799.9999976746358
 45
-1.122532015133643
 46
1.122532015133643
 79
     0
 47
0.668826438124856
 98
        2
 10
2472.793170209992
 20
1919.766096556931
 10
2480.155752320269
 20
1921.103752481212
  0
LINE
  5
40C8
330
18
100
AcDbEntity
  8
1
100
AcDbLine
 10
2475.000005579868
 20
1912.499997674635
 30
0.0
 11
2487.500005579867
 21
1924.999997674635
 31
0.0
  0
LINE
  5
40C9
330
18
100
AcDbEntity
  8
1
100
AcDbLine
 10
2475.000005579868
 20
1912.499997674635
 30
0.0
 11
2462.500005579868
 21
1924.999997674635
 31
0.0
  0
LINE
  5
40CA
330
18
100
AcDbEntity
  8
1
100
AcDbLine
 10
2462.500005579868
 20
1924.999997674635
 30
0.0
 11
2487.500005579867
 21
1924.999997674635
 31
0.0
  0
LINE
  5
40CC
330
18
100
AcDbEntity
  8
1
  6
Continuous
100
AcDbLine
 10
2457.25
 20
2250.0
 30
0.0
 11
2492.75
 21
2250.0
 31
0.0
  0
LINE
  5
40CD
330
18
100
AcDbEntity
  8
1
  6
Continuous
100
AcDbLine
 10
2466.124999999999
 20
2241.124999999999
 30
0.0
 11
2483.875
 21
2241.124999999999
 31
0.0
  0
LINE
  5
40CE
330
18
100
AcDbEntity
  8
1
  6
Continuous
100
AcDbLine
 10
2469.675
 20
2232.25
 30
0.0
 11
2478.55
 21
2232.25
 31
0.0
  0
TEXT
  5
40D5
330
18
100
AcDbEntity
  8
1
  6
Continuous
100
AcDbText
 10
3238.775047595535
 20
2659.309960555088
 30
0.0
 40
28.39999999999999
  1
端末機器部
 41
0.7
  7
ｽﾀｲﾙ1
 72
     1
 11
3311.065956686444
 21
2673.509960555088
 31
0.0
100
AcDbText
 73
     2
  0
TEXT
  5
40D6
330
18
100
AcDbEntity
  8
1
  6
Continuous
100
AcDbText
 10
3166.59709305008
 20
2609.309960555088
 30
0.0
 40
28.39999999999999
  1
クラスⅢSPD(誘導雷用)
 41
0.7
  7
ｽﾀｲﾙ1
 72
     1
 11
3311.065956686444
 21
2623.509960555088
 31
0.0
100
AcDbText
 73
     2
  0
TEXT
  5
40F6
330
18
100
AcDbEntity
  8
WAKU-MOJI
  6
Continuous
100
AcDbText
 10
3768.733333333333
 20
191.0
 30
0.0
 40
40.0
  1
誘導雷対策
 41
0.7
  7
M7
 72
     1
 11
3849.0
 21
211.0
 31
0.0
100
AcDbText
 73
     2
  0
TEXT
  5
415F
330
18
100
AcDbEntity
  8
1
  6
Continuous
100
AcDbText
 10
308.384839457427
 20
1384.035056985337
 30
0.0
 40
28.39999999999999
  1
誘導雷のみの対策では分電盤部にクラスⅡSPDを単独で設置する方法です。キュービクル部にも保護対象機器がある場合は
 41
0.7
  7
ｽﾀｲﾙ1
 11
308.384839457427
 21
1398.235056985337
 31
0.0
100
AcDbText
 73
     2
  0
LINE
  5
4160
330
18
100
AcDbEntity
  8
1
100
AcDbLine
 10
1850.0
 20
1425.0
 30
0.0
 11
300.0
 21
1425.0
 31
0.0
  0
LINE
  5
4161
330
18
100
AcDbEntity
  8
1
100
AcDbLine
 10
299.9999974211478
 20
1300.000001322076
 30
0.0
 11
1849.999997421147
 21
1300.000001322076
 31
0.0
  0
TEXT
  5
4163
330
18
100
AcDbEntity
  8
1
  6
Continuous
100
AcDbText
 10
308.384839457427
 20
1446.535056985337
 30
0.0
 40
28.39999999999999
  1
解説
 41
0.7
  7
ｽﾀｲﾙ1
 11
308.384839457427
 21
1460.735056985337
 31
0.0
100
AcDbText
 73
     2
  0
LINE
  5
4164
330
18
100
AcDbEntity
  8
1
100
AcDbLine
 10
299.9999974211478
 20
1425.000001322076
 30
0.0
 11
299.9999974211478
 21
1300.000001322076
 31
0.0
  0
LINE
  5
4165
330
18
100
AcDbEntity
  8
1
100
AcDbLine
 10
1849.999997421147
 20
1300.000001322076
 30
0.0
 11
1849.999997421147
 21
1425.000001322076
 31
0.0
  0
TEXT
  5
416D
330
18
100
AcDbEntity
  8
1
  6
Continuous
100
AcDbText
 10
308.384839457427
 20
1334.035056985337
 30
0.0
 40
28.39999999999999
  1
キュービクル部にもクラスⅡSPDを設置する必要があります。
 41
0.7
  7
ｽﾀｲﾙ1
 11
308.384839457427
 21
1348.235056985337
 31
0.0
100
AcDbText
 73
     2
  0
TEXT
  5
4184
330
18
100
AcDbEntity
  8
1
  6
Continuous
100
AcDbText
 10
3337.302337009282
 20
2191.390000897071
 30
0.0
 40
28.39999999999999
  1
デーンフレックスＭ２５５
 41
0.7
  7
M7
 72
     1
 11
3477.125003675948
 21
2205.590000897071
 31
0.0
100
AcDbText
 73
     2
  0
LWPOLYLINE
  5
4185
330
18
100
AcDbEntity
  8
1
  6
Continuous
100
AcDbPolyline
 90
        4
 70
     1
 43
0.0
 10
3300.000003675949
 20
2225.000000897071
 10
3650.000003675948
 20
2225.000000897071
 10
3650.000003675948
 20
2187.500000897071
 10
3300.000003675949
 20
2187.500000897071
  0
LWPOLYLINE
  5
4186
330
18
100
AcDbEntity
  8
1
  6
Continuous
100
AcDbPolyline
 90
        4
 70
     1
 43
0.0
 10
3075.000003675948
 20
1950.000000897071
 10
3425.000003675949
 20
1950.000000897071
 10
3425.000003675949
 20
1912.500000897071
 10
3075.000003675948
 20
1912.500000897071
  0
TEXT
  5
4187
330
18
100
AcDbEntity
  8
1
  6
Continuous
100
AcDbText
 10
3099.711670342615
 20
1916.390000897071
 30
0.0
 40
28.39999999999999
  1
エースライオンコンセントＡ
 41
0.7
  7
M7
 72
     1
 11
3252.125003675948
 21
1930.590000897071
 31
0.0
100
AcDbText
 73
     2
  0
TEXT
  5
4188
330
18
100
AcDbEntity
  8
1
  6
Continuous
100
AcDbText
 10
2537.783670342615
 20
1916.390000897071
 30
0.0
 40
28.39999999999999
  1
デーンガードＴＴＭ２７５ＦＭ
 41
0.7
  7
M7
 72
     1
 11
2702.125003675948
 21
1930.590000897071
 31
0.0
100
AcDbText
 73
     2
  0
LWPOLYLINE
  5
4189
330
18
100
AcDbEntity
  8
1
  6
Continuous
100
AcDbPolyline
 90
        4
 70
     1
 43
0.0
 10
2525.000003675948
 20
1950.000000897071
 10
2875.000003675948
 20
1950.000000897071
 10
2875.000003675948
 20
1912.500000897071
 10
2525.000003675948
 20
1912.500000897071
  0
LWPOLYLINE
  5
418A
330
18
100
AcDbEntity
  8
1
  6
Continuous
100
AcDbPolyline
 90
        4
 70
     1
 43
0.0
 10
2525.000003675948
 20
2400.000000897071
 10
2875.000003675948
 20
2400.000000897071
 10
2875.000003675948
 20
2362.500000897071
 10
2525.000003675948
 20
2362.500000897071
  0
TEXT
  5
418B
330
18
100
AcDbEntity
  8
1
  6
Continuous
100
AcDbText
 10
2537.783670342615
 20
2366.390000897071
 30
0.0
 40
28.39999999999999
  1
デーンガードＴＴＭ２７５ＦＭ
 41
0.7
  7
M7
 72
     1
 11
2702.125003675948
 21
2380.590000897071
 31
0.0
100
AcDbText
 73
     2
  0
ENDSEC
  0
SECTION
  2
OBJECTS
  0
DICTIONARY
  5
C
330
0
100
AcDbDictionary
281
     1
  3
ACAD_GROUP
350
D
  3
ACAD_LAYOUT
350
33F0
  3
ACAD_MLINESTYLE
350
E
  3
ACAD_PLOTSETTINGS
350
33F1
  3
ACAD_PLOTSTYLENAME
350
33EE
  3
AcDbVariableDictionary
350
3485
  0
DICTIONARY
  5
305A
330
3043
100
AcDbDictionary
280
     1
281
     1
  0
DICTIONARY
  5
D
102
{ACAD_REACTORS
330
C
102
}
330
C
100
AcDbDictionary
281
     1
  0
DICTIONARY
  5
33F0
102
{ACAD_REACTORS
330
C
102
}
330
C
100
AcDbDictionary
281
     1
  3
Model
350
33F2
  3
ﾚｲｱｳﾄ1
350
33F3
  0
DICTIONARY
  5
E
102
{ACAD_REACTORS
330
C
102
}
330
C
100
AcDbDictionary
281
     1
  3
STANDARD
350
1B
  0
DICTIONARY
  5
33F1
102
{ACAD_REACTORS
330
C
102
}
330
C
100
AcDbDictionary
281
     1
  0
ACDBDICTIONARYWDFLT
  5
33EE
102
{ACAD_REACTORS
330
C
102
}
330
C
100
AcDbDictionary
281
     1
  3
Normal
350
33EF
100
AcDbDictionaryWithDefault
340
33EF
  0
DICTIONARY
  5
3485
102
{ACAD_REACTORS
330
C
102
}
330
C
100
AcDbDictionary
281
     1
  3
DIMASSOC
350
3486
  0
LAYOUT
  5
33F2
102
{ACAD_REACTORS
330
33F0
102
}
330
33F0
100
AcDbPlotSettings
  1

  2
iR C5870
  4
A4
  6

 40
5.873749732971191
 41
5.873747825622558
 42
5.873748779296875
 43
5.873748779296875
 44
209.9733276367187
 45
296.9259948730469
 46
0.0
 47
0.0
 48
150.0
 49
50.0
140
4050.0
141
2820.0
142
1.0
143
13.97396097287065
 70
 11952
 72
     1
 73
     1
 74
     4
  7
monochrome.ctb
 75
     0
147
0.0715616711640616
148
-150.0
149
-50.0
100
AcDbLayout
  1
Model
 70
     1
 71
     0
 10
0.0
 20
0.0
 11
12.0
 21
9.0
 12
0.0
 22
0.0
 32
0.0
 14
0.0
 24
0.0
 34
0.0
 15
0.0
 25
0.0
 35
0.0
146
0.0
 13
0.0
 23
0.0
 33
0.0
 16
1.0
 26
0.0
 36
0.0
 17
0.0
 27
1.0
 37
0.0
 76
     0
330
18
  0
LAYOUT
  5
33F3
102
{ACAD_REACTORS
330
33F0
102
}
330
33F0
100
AcDbPlotSettings
  1

  2
\\SEKKEI-SERVER1\CAD-A4[2]
  4

  6

 40
0.0
 41
0.0
 42
0.0
 43
0.0
 44
0.0
 45
0.0
 46
0.0
 47
0.0
 48
0.0
 49
0.0
140
0.0
141
0.0
142
1.0
143
1.0
 70
   688
 72
     0
 73
     0
 74
     5
  7
monochrome.ctb
 75
    16
147
1.0
148
0.0
149
0.0
100
AcDbLayout
  1
ﾚｲｱｳﾄ1
 70
     0
 71
     1
 10
0.0
 20
0.0
 11
12.0
 21
9.0
 12
0.0
 22
0.0
 32
0.0
 14
1.000000000000000E+20
 24
1.000000000000000E+20
 34
1.000000000000000E+20
 15
-1.000000000000000E+20
 25
-1.000000000000000E+20
 35
-1.000000000000000E+20
146
0.0
 13
0.0
 23
0.0
 33
0.0
 16
1.0
 26
0.0
 36
0.0
 17
0.0
 27
1.0
 37
0.0
 76
     0
330
15
  0
MLINESTYLE
  5
1B
102
{ACAD_REACTORS
330
E
102
}
330
E
100
AcDbMlineStyle
  2
STANDARD
 70
     0
  3

 62
     0
 51
90.0
 52
90.0
 71
     2
 49
0.5
 62
   256
  6
BYLAYER
 49
-0.5
 62
   256
  6
BYLAYER
  0
ACDBPLACEHOLDER
  5
33EF
102
{ACAD_REACTORS
330
33EE
102
}
330
33EE
  0
DICTIONARYVAR
  5
3486
102
{ACAD_REACTORS
330
3485
102
}
330
3485
100
DictionaryVariables
280
     0
  1
1
  0
ENDSEC
  0
EOF
